  0
SECTION
  2
HEADER
  9
$ACADVER
  1
AC1015
  9
$ACADMAINTVER
 70
     6
  9
$DWGCODEPAGE
  3
ANSI_1252
  9
$INSBASE
 10
0.0
 20
0.0
 30
0.0
  9
$EXTMIN
 10
0.0
 20
0.0
 30
0.0
  9
$EXTMAX
 10
55.0
 20
35.0
 30
0.0
  9
$LIMMIN
 10
0.0
 20
0.0
  9
$LIMMAX
 10
55.0
 20
35.0
  9
$ORTHOMODE
 70
     0
  9
$REGENMODE
 70
     1
  9
$FILLMODE
 70
     1
  9
$QTEXTMODE
 70
     0
  9
$MIRRTEXT
 70
     1
  9
$LTSCALE
 40
1.0
  9
$ATTMODE
 70
     1
  9
$TEXTSIZE
 40
0.1666666667
  9
$TRACEWID
 40
0.05
  9
$TEXTSTYLE
  7
Standard
  9
$CLAYER
  8
0
  9
$CELTYPE
  6
ByLayer
  9
$CECOLOR
 62
   256
  9
$CELTSCALE
 40
1.0
  9
$DISPSILH
 70
     0
  9
$DIMSCALE
 40
1.0
  9
$DIMASZ
 40
0.09
  9
$DIMEXO
 40
0.05
  9
$DIMDLI
 40
0.38
  9
$DIMRND
 40
0.0
  9
$DIMDLE
 40
0.0
  9
$DIMEXE
 40
0.0625
  9
$DIMTP
 40
0.0
  9
$DIMTM
 40
0.0
  9
$DIMTXT
 40
0.1666666667
  9
$DIMCEN
 40
0.09
  9
$DIMTSZ
 40
0.0
  9
$DIMTOL
 70
     0
  9
$DIMLIM
 70
     0
  9
$DIMTIH
 70
     1
  9
$DIMTOH
 70
     1
  9
$DIMSE1
 70
     0
  9
$DIMSE2
 70
     0
  9
$DIMTAD
 70
     0
  9
$DIMZIN
 70
     0
  9
$DIMBLK
  1

  9
$DIMASO
 70
     1
  9
$DIMSHO
 70
     1
  9
$DIMPOST
  1

  9
$DIMAPOST
  1

  9
$DIMALT
 70
     0
  9
$DIMALTD
 70
     2
  9
$DIMALTF
 40
25.4
  9
$DIMLFAC
 40
24.0
  9
$DIMTOFL
 70
     0
  9
$DIMTVP
 40
0.0
  9
$DIMTIX
 70
     0
  9
$DIMSOXD
 70
     0
  9
$DIMSAH
 70
     0
  9
$DIMBLK1
  1

  9
$DIMBLK2
  1

  9
$DIMSTYLE
  2
Standard
  9
$DIMCLRD
 70
     0
  9
$DIMCLRE
 70
     0
  9
$DIMCLRT
 70
     0
  9
$DIMTFAC
 40
1.0
  9
$DIMGAP
 40
0.06
  9
$DIMJUST
 70
     0
  9
$DIMSD1
 70
     0
  9
$DIMSD2
 70
     0
  9
$DIMTOLJ
 70
     1
  9
$DIMTZIN
 70
     0
  9
$DIMALTZ
 70
     0
  9
$DIMALTTZ
 70
     0
  9
$DIMUPT
 70
     0
  9
$DIMDEC
 70
     2
  9
$DIMTDEC
 70
     2
  9
$DIMALTU
 70
     2
  9
$DIMALTTD
 70
     2
  9
$DIMTXSTY
  7
Standard
  9
$DIMAUNIT
 70
     0
  9
$DIMADEC
 70
     0
  9
$DIMALTRND
 40
0.0
  9
$DIMAZIN
 70
     0
  9
$DIMDSEP
 70
    46
  9
$DIMATFIT
 70
     3
  9
$DIMFRAC
 70
     0
  9
$DIMLDRBLK
  1

  9
$DIMLUNIT
 70
     2
  9
$DIMLWD
 70
    -2
  9
$DIMLWE
 70
    -2
  9
$DIMTMOVE
 70
     0
  9
$LUNITS
 70
     2
  9
$LUPREC
 70
     2
  9
$SKETCHINC
 40
0.1
  9
$FILLETRAD
 40
0.5
  9
$AUNITS
 70
     0
  9
$AUPREC
 70
     0
  9
$MENU
  1
.
  9
$ELEVATION
 40
0.0
  9
$PELEVATION
 40
0.0
  9
$THICKNESS
 40
0.0
  9
$LIMCHECK
 70
     0
  9
$CHAMFERA
 40
0.5
  9
$CHAMFERB
 40
0.5
  9
$CHAMFERC
 40
1.0
  9
$CHAMFERD
 40
0.0
  9
$SKPOLY
 70
     0
  9
$TDCREATE
 40
2455464.416692326
  9
$TDUCREATE
 40
2455464.62502566
  9
$TDUPDATE
 40
2455464.416692338
  9
$TDUUPDATE
 40
2455464.625025671
  9
$TDINDWG
 40
0.0000000116
  9
$TDUSRTIMER
 40
0.0000000116
  9
$USRTIMER
 70
     1
  9
$ANGBASE
 50
0.0
  9
$ANGDIR
 70
     0
  9
$PDMODE
 70
     0
  9
$PDSIZE
 40
-1.0
  9
$PLINEWID
 40
0.0
  9
$SPLFRAME
 70
     0
  9
$SPLINETYPE
 70
     6
  9
$SPLINESEGS
 70
     8
  9
$HANDSEED
  5
19D
  9
$SURFTAB1
 70
     6
  9
$SURFTAB2
 70
     6
  9
$SURFTYPE
 70
     6
  9
$SURFU
 70
     6
  9
$SURFV
 70
     6
  9
$UCSBASE
  2

  9
$UCSNAME
  2

  9
$UCSORG
 10
0.0
 20
0.0
 30
0.0
  9
$UCSXDIR
 10
1.0
 20
0.0
 30
0.0
  9
$UCSYDIR
 10
0.0
 20
1.0
 30
0.0
  9
$UCSORTHOREF
  2

  9
$UCSORTHOVIEW
 70
     0
  9
$UCSORGTOP
 10
0.0
 20
0.0
 30
0.0
  9
$UCSORGBOTTOM
 10
0.0
 20
0.0
 30
0.0
  9
$UCSORGLEFT
 10
0.0
 20
0.0
 30
0.0
  9
$UCSORGRIGHT
 10
0.0
 20
0.0
 30
0.0
  9
$UCSORGFRONT
 10
0.0
 20
0.0
 30
0.0
  9
$UCSORGBACK
 10
0.0
 20
0.0
 30
0.0
  9
$PUCSBASE
  2

  9
$PUCSNAME
  2

  9
$PUCSORG
 10
0.0
 20
0.0
 30
0.0
  9
$PUCSXDIR
 10
1.0
 20
0.0
 30
0.0
  9
$PUCSYDIR
 10
0.0
 20
1.0
 30
0.0
  9
$PUCSORTHOREF
  2

  9
$PUCSORTHOVIEW
 70
     0
  9
$PUCSORGTOP
 10
0.0
 20
0.0
 30
0.0
  9
$PUCSORGBOTTOM
 10
0.0
 20
0.0
 30
0.0
  9
$PUCSORGLEFT
 10
0.0
 20
0.0
 30
0.0
  9
$PUCSORGRIGHT
 10
0.0
 20
0.0
 30
0.0
  9
$PUCSORGFRONT
 10
0.0
 20
0.0
 30
0.0
  9
$PUCSORGBACK
 10
0.0
 20
0.0
 30
0.0
  9
$USERI1
 70
     0
  9
$USERI2
 70
     0
  9
$USERI3
 70
     0
  9
$USERI4
 70
     0
  9
$USERI5
 70
     0
  9
$USERR1
 40
0.0
  9
$USERR2
 40
0.0
  9
$USERR3
 40
0.0
  9
$USERR4
 40
0.0
  9
$USERR5
 40
0.0
  9
$WORLDVIEW
 70
     1
  9
$SHADEDGE
 70
     3
  9
$SHADEDIF
 70
    70
  9
$TILEMODE
 70
     1
  9
$MAXACTVP
 70
    64
  9
$PINSBASE
 10
0.0
 20
0.0
 30
0.0
  9
$PLIMCHECK
 70
     0
  9
$PEXTMIN
 10
1.0000000000E+20
 20
1.0000000000E+20
 30
1.0000000000E+20
  9
$PEXTMAX
 10
-1.0000000000E+20
 20
-1.0000000000E+20
 30
-1.0000000000E+20
  9
$PLIMMIN
 10
0.0
 20
0.0
  9
$PLIMMAX
 10
12.0
 20
9.0
  9
$UNITMODE
 70
     0
  9
$VISRETAIN
 70
     1
  9
$PLINEGEN
 70
     0
  9
$PSLTSCALE
 70
     1
  9
$TREEDEPTH
 70
  3020
  9
$CMLSTYLE
  2
Standard
  9
$CMLJUST
 70
     0
  9
$CMLSCALE
 40
1.0
  9
$PROXYGRAPHICS
 70
     1
  9
$MEASUREMENT
 70
     0
  9
$CELWEIGHT
370
    -1
  9
$ENDCAPS
280
     0
  9
$JOINSTYLE
280
     0
  9
$LWDISPLAY
290
     1
  9
$INSUNITS
 70
     1
  9
$HYPERLINKBASE
  1

  9
$STYLESHEET
  1

  9
$XEDIT
290
     1
  9
$CEPSNTYPE
380
     0
  9
$PSTYLEMODE
290
     1
  9
$FINGERPRINTGUID
  2
{28CD6DD2-F628-4D8E-BE7D-F89E87EEB9CD}
  9
$VERSIONGUID
  2
{FAEB1C32-E019-11D5-929B-00C0DF256EC4}
  9
$EXTNAMES
290
     1
  9
$PSVPSCALE
 40
0.0
  9
$OLESTARTUP
290
     0
  0
ENDSEC
  0
SECTION
  2
CLASSES
  0
CLASS
  1
ACDBDICTIONARYWDFLT
  2
AcDbDictionaryWithDefault
  3
ObjectDBX Classes
 90
        0
280
     0
281
     0
  0
CLASS
  1
VISUALSTYLE
  2
AcDbVisualStyle
  3
ObjectDBX Classes
 90
     4095
280
     0
281
     0
  0
CLASS
  1
MATERIAL
  2
AcDbMaterial
  3
ObjectDBX Classes
 90
     1153
280
     0
281
     0
  0
CLASS
  1
SCALE
  2
AcDbScale
  3
ObjectDBX Classes
 90
     1153
280
     0
281
     0
  0
CLASS
  1
DICTIONARYVAR
  2
AcDbDictionaryVar
  3
ObjectDBX Classes
 90
        0
280
     0
281
     0
  0
CLASS
  1
ACDBPLACEHOLDER
  2
AcDbPlaceHolder
  3
ObjectDBX Classes
 90
        0
280
     0
281
     0
  0
CLASS
  1
LAYOUT
  2
AcDbLayout
  3
ObjectDBX Classes
 90
        0
280
     0
281
     0
  0
ENDSEC
  0
SECTION
  2
TABLES
  0
TABLE
  2
VPORT
  5
8
330
0
100
AcDbSymbolTable
 70
     1
  0
VPORT
  5
29
330
8
100
AcDbSymbolTableRecord
100
AcDbViewportTableRecord
  2
*Active
 70
     0
 10
0.0
 20
0.0
 11
1.0
 21
1.0
 12
27.5
 22
17.5
 13
0.0
 23
0.0
 14
0.5
 24
0.5
 15
0.5
 25
0.5
 16
0.0
 26
0.0
 36
1.0
 17
0.0
 27
0.0
 37
0.0
 40
35.0
 41
1.5714285714
 42
50.0
 43
0.0
 44
0.0
 50
0.0
 51
0.0
 71
     0
 72
  2000
 73
     1
 74
     3
 75
     0
 76
     0
 77
     0
 78
     0
281
     0
 65
     1
110
0.0
120
0.0
130
0.0
111
1.0
121
0.0
131
0.0
112
0.0
122
1.0
132
0.0
 79
     0
146
0.0
  0
ENDTAB
  0
TABLE
  2
LTYPE
  5
5
330
0
100
AcDbSymbolTable
 70
     6
  0
LTYPE
  5
14
330
5
100
AcDbSymbolTableRecord
100
AcDbLinetypeTableRecord
  2
ByBlock
 70
     0
  3

 72
    65
 73
     0
 40
0.0
  0
LTYPE
  5
15
330
5
100
AcDbSymbolTableRecord
100
AcDbLinetypeTableRecord
  2
ByLayer
 70
     0
  3

 72
    65
 73
     0
 40
0.0
  0
LTYPE
  5
16
330
5
100
AcDbSymbolTableRecord
100
AcDbLinetypeTableRecord
  2
Continuous
 70
     0
  3
Solid line
 72
    65
 73
     0
 40
0.0
  0
LTYPE
  5
3F
330
5
100
AcDbSymbolTableRecord
100
AcDbLinetypeTableRecord
  2
HIDDEN
 70
     0
  3
Hidden __ __ __ __ __ __ __ __ __ __ __ __ __ __
 72
    65
 73
     2
 40
0.075
 49
0.05
 74
     0
 49
-0.025
 74
     0
  0
LTYPE
  5
40
330
5
100
AcDbSymbolTableRecord
100
AcDbLinetypeTableRecord
  2
PHANTOM
 70
     0
  3
Phantom ______  __  __  ______  __  __  ______
 72
    65
 73
     6
 40
0.5
 49
0.25
 74
     0
 49
-0.05
 74
     0
 49
0.05
 74
     0
 49
-0.05
 74
     0
 49
0.05
 74
     0
 49
-0.05
 74
     0
  0
LTYPE
  5
41
330
5
100
AcDbSymbolTableRecord
100
AcDbLinetypeTableRecord
  2
CENTER
 70
     0
  3
Center ____ _ ____ _ ____ _ ____ _ ____ _ ____
 72
    65
 73
     4
 40
0.4
 49
0.25
 74
     0
 49
-0.05
 74
     0
 49
0.05
 74
     0
 49
-0.05
 74
     0
  0
LTYPE
  5
42
330
5
100
AcDbSymbolTableRecord
100
AcDbLinetypeTableRecord
  2
CENTERX2
 70
     0
  3
Center (2x) ________  __  ________  __  _____
 72
    65
 73
     4
 40
0.8
 49
0.5
 74
     0
 49
-0.1
 74
     0
 49
0.1
 74
     0
 49
-0.1
 74
     0
  0
LTYPE
  5
43
330
5
100
AcDbSymbolTableRecord
100
AcDbLinetypeTableRecord
  2
DOT2
 70
     0
  3
Dot (.5x) ........................................
 72
    65
 73
     2
 40
0.025
 49
0.0
 74
     0
 49
-0.025
 74
     0
  0
ENDTAB
  0
TABLE
  2
LAYER
  5
2
330
0
100
AcDbSymbolTable
 70
     2
  0
LAYER
  5
10
330
2
100
AcDbSymbolTableRecord
100
AcDbLayerTableRecord
  2
0
 70
     0
 62
     7
  6
Continuous
370
    -3
390
F
  0
LAYER
  5
44
330
2
100
AcDbSymbolTableRecord
100
AcDbLayerTableRecord
  2
FORMAT
 70
     0
 62
     7
  6
Continuous
370
    -3
390
F
  0
ENDTAB
  0
TABLE
  2
STYLE
  5
3
330
0
100
AcDbSymbolTable
 70
     3
  0
STYLE
  5
11
330
3
100
AcDbSymbolTableRecord
100
AcDbTextStyleTableRecord
  2
Standard
 70
     0
 40
0.0
 41
1.0
 50
0.0
 71
     0
 42
0.2
  3
txt
  4

  0
STYLE
  5
4B
330
3
100
AcDbSymbolTableRecord
100
AcDbTextStyleTableRecord
  2
SLDTEXTSTYLE0
 70
     0
 40
0.0
 41
0.96
 50
0.0
 71
     0
 42
0.2
  3
TXT
  4

  0
STYLE
  5
70
330
3
100
AcDbSymbolTableRecord
100
AcDbTextStyleTableRecord
  2
SLDTEXTSTYLE1
 70
     0
 40
0.0
 41
0.8833333333
 50
0.0
 71
     0
 42
0.2
  3
TXT
  4

  0
ENDTAB
  0
TABLE
  2
VIEW
  5
6
330
0
100
AcDbSymbolTable
 70
     0
  0
ENDTAB
  0
TABLE
  2
UCS
  5
7
330
0
100
AcDbSymbolTable
 70
     0
  0
ENDTAB
  0
TABLE
  2
APPID
  5
9
330
0
100
AcDbSymbolTable
 70
     1
  0
APPID
  5
12
330
9
100
AcDbSymbolTableRecord
100
AcDbRegAppTableRecord
  2
ACAD
 70
     0
  0
ENDTAB
  0
TABLE
  2
DIMSTYLE
  5
A
330
0
100
AcDbSymbolTable
 70
     1
100
AcDbDimStyleTable
  0
DIMSTYLE
105
27
330
A
100
AcDbSymbolTableRecord
100
AcDbDimStyleTableRecord
  2
Standard
 70
     0
340
11
  0
ENDTAB
  0
TABLE
  2
BLOCK_RECORD
  5
1
330
0
100
AcDbSymbolTable
 70
     3
  0
BLOCK_RECORD
  5
1F
330
1
100
AcDbSymbolTableRecord
100
AcDbBlockTableRecord
  2
*Model_Space
340
22
  0
BLOCK_RECORD
  5
1B
330
1
100
AcDbSymbolTableRecord
100
AcDbBlockTableRecord
  2
*Paper_Space
340
1E
  0
BLOCK_RECORD
  5
23
330
1
100
AcDbSymbolTableRecord
100
AcDbBlockTableRecord
  2
*Paper_Space0
340
26
  0
BLOCK_RECORD
  5
45
330
1
100
AcDbSymbolTableRecord
100
AcDbBlockTableRecord
  2
SW_NOTE_0
340
0
102
{BLKREFS
331
73
102
}
  0
BLOCK_RECORD
  5
48
330
1
100
AcDbSymbolTableRecord
100
AcDbBlockTableRecord
  2
SW_NOTE_0_1
340
0
102
{BLKREFS
331
72
102
}
  0
ENDTAB
  0
ENDSEC
  0
SECTION
  2
BLOCKS
  0
BLOCK
  5
20
330
1F
100
AcDbEntity
  8
0
100
AcDbBlockBegin
  2
*Model_Space
 70
     0
 10
0.0
 20
0.0
 30
0.0
  3
*Model_Space
  1

  0
ENDBLK
  5
21
330
1F
100
AcDbEntity
  8
0
100
AcDbBlockEnd
  0
BLOCK
  5
1C
330
1B
100
AcDbEntity
 67
     1
  8
0
100
AcDbBlockBegin
  2
*Paper_Space
 70
     0
 10
0.0
 20
0.0
 30
0.0
  3
*Paper_Space
  1

  0
ENDBLK
  5
1D
330
1B
100
AcDbEntity
 67
     1
  8
0
100
AcDbBlockEnd
  0
BLOCK
  5
24
330
23
100
AcDbEntity
  8
0
100
AcDbBlockBegin
  2
*Paper_Space0
 70
     0
 10
0.0
 20
0.0
 30
0.0
  3
*Paper_Space0
  1

  0
ENDBLK
  5
25
330
23
100
AcDbEntity
  8
0
100
AcDbBlockEnd
  0
BLOCK
  5
46
330
45
100
AcDbEntity
  8
0
100
AcDbBlockBegin
  2
SW_NOTE_0
 70
     0
 10
0.0
 20
0.0
 30
0.0
  3
SW_NOTE_0
  1

  0
INSERT
  5
72
330
45
100
AcDbEntity
  8
FORMAT
 62
     7
100
AcDbBlockReference
  2
SW_NOTE_0_1
 10
6.1082780987
 20
1.6757404968
 30
0.0
  0
ENDBLK
  5
47
330
45
100
AcDbEntity
  8
0
100
AcDbBlockEnd
  0
BLOCK
  5
49
330
48
100
AcDbEntity
  8
0
100
AcDbBlockBegin
  2
SW_NOTE_0_1
 70
     0
 10
0.0
 20
0.0
 30
0.0
  3
SW_NOTE_0_1
  1

  0
MTEXT
  5
6E
330
48
100
AcDbEntity
  8
FORMAT
 62
     0
100
AcDbMText
 10
0.0
 20
1.7456125643
 30
0.0
 40
1.3541666667
 41
0.0
 71
     1
 72
     1
  1
Titus
  7
SLDTEXTSTYLE0
 73
     1
 44
1.0
  0
MTEXT
  5
6F
330
48
100
AcDbEntity
  8
FORMAT
 62
     0
100
AcDbMText
 10
0.0
 20
-1.8654984665
 30
0.0
 40
1.3541666667
 41
0.0
 71
     1
 72
     1
  1
MDV
  7
SLDTEXTSTYLE0
 73
     1
 44
1.0
  0
MTEXT
  5
71
330
48
100
AcDbEntity
  8
FORMAT
 62
     0
100
AcDbMText
 10
0.0
 20
-5.4766094973
 30
0.0
 40
1.3541666667
 41
0.0
 71
     1
 72
     1
  1
Size 5
  7
SLDTEXTSTYLE1
 73
     1
 44
1.0
  0
ENDBLK
  5
4A
330
48
100
AcDbEntity
  8
0
100
AcDbBlockEnd
  0
ENDSEC
  0
SECTION
  2
ENTITIES
  0
INSERT
  5
73
330
1F
100
AcDbEntity
  8
FORMAT
100
AcDbBlockReference
  2
SW_NOTE_0
 10
13.9225256153
 20
19.8187829689
 30
0.0
  0
ARC
  5
74
330
1F
100
AcDbEntity
  8
0
  6
Continuous
 62
     7
370
    30
100
AcDbCircle
 10
4.8389109066
 20
19.3637735253
 30
0.0
 40
0.1250000000000018
100
AcDbArc
 50
180.0
 51
244.9126169237
  0
LINE
  5
75
330
1F
100
AcDbEntity
  8
0
  6
Continuous
 62
     7
370
    30
100
AcDbLine
 10
1.5579104032
 20
19.3637734167
 30
0.0
 11
4.7139106382
 21
19.3637734167
 31
0.0
  0
ARC
  5
76
330
1F
100
AcDbEntity
  8
0
  6
Continuous
 62
     7
370
    30
100
AcDbCircle
 10
4.8389109066
 20
10.4897735253
 30
0.0
 40
0.1249999999999991
100
AcDbArc
 50
180.0
 51
244.9126169237
  0
LINE
  5
77
330
1F
100
AcDbEntity
  8
0
  6
Continuous
 62
     7
370
    30
100
AcDbLine
 10
1.5579104032
 20
10.4897737699
 30
0.0
 11
4.7139106382
 21
10.4897737699
 31
0.0
  0
ARC
  5
78
330
1F
100
AcDbEntity
  8
0
  6
Continuous
 62
     7
370
    30
100
AcDbCircle
 10
4.1962991993
 20
15.4087243937
 30
0.0
 40
0.112194934803419
100
AcDbArc
 50
45.9135295024
 51
78.8939461662
  0
LINE
  5
79
330
1F
100
AcDbEntity
  8
0
  6
Continuous
 62
     7
370
    30
100
AcDbLine
 10
4.2179108214
 20
15.5188181773
 30
0.0
 11
4.2179108214
 21
15.5425834761
 31
0.0
  0
LINE
  5
7A
330
1F
100
AcDbEntity
  8
0
  6
Continuous
 62
     7
370
    30
100
AcDbLine
 10
4.2179108214
 20
15.5152826348
 30
0.0
 11
4.2179108214
 21
15.5188181773
 31
0.0
  0
ARC
  5
7B
330
1F
100
AcDbEntity
  8
0
  6
Continuous
 62
     7
370
    30
100
AcDbCircle
 10
4.1963747024
 20
20.3196574615
 30
0.0
 40
0.1120184043255643
100
AcDbArc
 50
281.0844234924
 51
314.2792246629
  0
LINE
  5
7C
330
1F
100
AcDbEntity
  8
0
  6
Continuous
 62
     7
370
    30
100
AcDbLine
 10
4.2179108214
 20
20.2097287642
 30
0.0
 11
4.2179108214
 21
20.1859634654
 31
0.0
  0
LINE
  5
7D
330
1F
100
AcDbEntity
  8
0
  6
Continuous
 62
     7
370
    30
100
AcDbLine
 10
4.2179108214
 20
20.2132645634
 30
0.0
 11
4.2179108214
 21
20.2097287642
 31
0.0
  0
LINE
  5
7E
330
1F
100
AcDbEntity
  8
0
  6
Continuous
 62
     7
370
    30
100
AcDbLine
 10
4.0909106885
 20
11.3706535673
 30
0.0
 11
4.094064572
 21
11.3519919162
 31
0.0
  0
ARC
  5
7F
330
1F
100
AcDbEntity
  8
0
  6
Continuous
 62
     7
370
    30
100
AcDbCircle
 10
4.1863961889
 20
15.4158894865
 30
0.0
 40
0.1045754207892335
100
AcDbArc
 50
100.1813544882
 51
145.8615205809
  0
LINE
  5
80
330
1F
100
AcDbEntity
  8
0
  6
Continuous
 62
     7
370
    30
100
AcDbLine
 10
4.1679109723
 20
15.5425834761
 30
0.0
 11
4.1679109723
 21
15.5188181773
 31
0.0
  0
LINE
  5
81
330
1F
100
AcDbEntity
  8
0
  6
Continuous
 62
     7
370
    30
100
AcDbLine
 10
4.1679109723
 20
15.5152826348
 30
0.0
 11
4.1679109723
 21
15.5188181773
 31
0.0
  0
ARC
  5
82
330
1F
100
AcDbEntity
  8
0
  6
Continuous
 62
     7
370
    30
100
AcDbCircle
 10
4.1862630273
 20
20.312350856
 30
0.0
 40
0.104250139806798
100
AcDbArc
 50
213.6039576745
 51
259.8608926065
  0
LINE
  5
83
330
1F
100
AcDbEntity
  8
0
  6
Continuous
 62
     7
370
    30
100
AcDbLine
 10
4.1679109723
 20
20.1859634654
 30
0.0
 11
4.1679109723
 21
20.2097287642
 31
0.0
  0
LWPOLYLINE
  5
84
330
1F
100
AcDbEntity
  8
0
  6
Continuous
 62
     7
370
    30
100
AcDbPolyline
 90
        3
 70
   128
 43
0.0
 10
4.0909106885
 20
24.3578937776
 10
4.0963607588
 20
24.3822976557
 10
4.0990371013
 20
24.3875101288
  0
LINE
  5
85
330
1F
100
AcDbEntity
  8
0
  6
Continuous
 62
     7
370
    30
100
AcDbLine
 10
4.1679109723
 20
20.2132645634
 30
0.0
 11
4.1679109723
 21
20.2097287642
 31
0.0
  0
ARC
  5
86
330
1F
100
AcDbEntity
  8
0
  6
Continuous
 62
     7
370
    30
100
AcDbCircle
 10
4.1963861359
 20
20.3221381449
 30
0.0
 40
0.1095194993649764
100
AcDbArc
 50
281.334552418
 51
314.7286389363
  0
ARC
  5
87
330
1F
100
AcDbEntity
  8
0
  6
Continuous
 62
     7
370
    30
100
AcDbCircle
 10
4.1829525974
 20
20.3129691461
 30
0.0
 40
0.0705783566974134
100
AcDbArc
 50
212.2233933598
 51
327.3443452947
  0
LINE
  5
88
330
1F
100
AcDbEntity
  8
0
  6
Continuous
 62
     7
370
    30
100
AcDbLine
 10
4.2179108214
 20
20.2132645634
 30
0.0
 11
4.2179108214
 21
20.2147546795
 31
0.0
  0
LWPOLYLINE
  5
89
330
1F
100
AcDbEntity
  8
0
  6
Continuous
 62
     7
370
    30
100
AcDbPolyline
 90
       17
 70
   128
 43
0.0
 10
4.1829106923
 20
24.3969946592
 10
4.1598361856
 20
24.3937492567
 10
4.1402745982
 20
24.3845070168
 10
4.1272026426
 20
24.3706747499
 10
4.1226137889
 20
24.3543579784
 10
4.1272026426
 20
24.3380417936
 10
4.1402745982
 20
24.3242095267
 10
4.1598361856
 20
24.3149667001
 10
4.1829106923
 20
24.3117212976
 10
4.2059863724
 20
24.3149667001
 10
4.2255479598
 20
24.3242095267
 10
4.2386187421
 20
24.3380417936
 10
4.2432087691
 20
24.3543579784
 10
4.2386187421
 20
24.3706747499
 10
4.2255479598
 20
24.3845070168
 10
4.2059863724
 20
24.3937492567
 10
4.1829106923
 20
24.3969946592
  0
LWPOLYLINE
  5
8A
330
1F
100
AcDbEntity
  8
0
  6
Continuous
 62
     7
370
    30
100
AcDbPolyline
 90
       16
 70
   128
 43
0.0
 10
4.1555981545
 20
11.4139396806
 10
4.1387164295
 20
11.4054389788
 10
4.1251681061
 20
11.3911013044
 10
4.1204114677
 20
11.3741890731
 10
4.1251681061
 20
11.3572765485
 10
4.1387164295
 20
11.3429388741
 10
4.158993742
 20
11.3333590114
 10
4.1829106923
 20
11.3299948103
 10
4.206828816
 20
11.3333590114
 10
4.2271049551
 20
11.3429388741
 10
4.2406532786
 20
11.3572765485
 10
4.2454110903
 20
11.3741890731
 10
4.2406532786
 20
11.3911013044
 10
4.2271049551
 20
11.4054389788
 10
4.206828816
 20
11.4150191348
 10
4.2027057703
 20
11.4161079755
  0
ARC
  5
8B
330
1F
100
AcDbEntity
  8
0
  6
Continuous
 62
     7
370
    30
100
AcDbCircle
 10
4.1961405208
 20
15.4058708707
 30
0.0
 40
0.110095396959981
100
AcDbArc
 50
46.0034005278
 51
78.5951490866
  0
ARC
  5
8C
330
1F
100
AcDbEntity
  8
0
  6
Continuous
 62
     7
370
    30
100
AcDbCircle
 10
4.1769170444
 20
15.4240212664
 30
0.0
 40
0.0589739259192193
100
AcDbArc
 50
84.1668342729
 51
151.4408513782
  0
ARC
  5
8D
330
1F
100
AcDbEntity
  8
0
  6
Continuous
 62
     7
370
    30
100
AcDbCircle
 10
4.1888962558
 20
15.423995337
 30
0.0
 40
0.0589989003783255
100
AcDbArc
 50
28.6182145974
 51
95.8227960504
  0
LINE
  5
8E
330
1F
100
AcDbEntity
  8
0
  6
Continuous
 62
     7
370
    30
100
AcDbLine
 10
4.2179108214
 20
15.5137923721
 30
0.0
 11
4.2179108214
 21
15.5152826348
 31
0.0
  0
LINE
  5
8F
330
1F
100
AcDbEntity
  8
0
  6
Continuous
 62
     7
370
    30
100
AcDbLine
 10
38.5639105334
 20
20.7412734237
 30
0.0
 11
38.5639105334
 21
20.7392735002
 31
0.0
  0
LINE
  5
90
330
1F
100
AcDbEntity
  8
0
  6
Continuous
 62
     7
370
    30
100
AcDbLine
 10
38.5639105334
 20
20.7412734237
 30
0.0
 11
42.536909757
 21
20.7412734237
 31
0.0
  0
CIRCLE
  5
91
330
1F
100
AcDbEntity
  8
0
  6
Continuous
 62
     7
370
    30
100
AcDbCircle
 10
41.3549109066
 20
20.3952735253
 30
0.0
 40
0.0805000000000007
  0
CIRCLE
  5
92
330
1F
100
AcDbEntity
  8
0
  6
Continuous
 62
     7
370
    30
100
AcDbCircle
 10
38.9799109066
 20
20.3952735253
 30
0.0
 40
0.0805000000000007
  0
LINE
  5
93
330
1F
100
AcDbEntity
  8
0
  6
Continuous
 62
     7
370
    30
100
AcDbLine
 10
42.536909757
 20
20.6982736005
 30
0.0
 11
42.536909757
 21
20.7412734237
 31
0.0
  0
LINE
  5
94
330
1F
100
AcDbEntity
  8
0
  6
Continuous
 62
     7
370
    30
100
AcDbLine
 10
42.536909757
 20
20.8672733015
 30
0.0
 11
42.536909757
 21
20.9062732777
 31
0.0
  0
LINE
  5
95
330
1F
100
AcDbEntity
  8
0
  6
Continuous
 62
     7
370
    30
100
AcDbLine
 10
42.536909757
 20
20.8672733015
 30
0.0
 11
42.5339107517
 21
20.8672733015
 31
0.0
  0
LINE
  5
96
330
1F
100
AcDbEntity
  8
0
  6
Continuous
 62
     7
370
    30
100
AcDbLine
 10
42.5339107517
 20
20.9062732777
 30
0.0
 11
42.5339107517
 21
20.8672733015
 31
0.0
  0
LINE
  5
97
330
1F
100
AcDbEntity
  8
0
  6
Continuous
 62
     7
370
    30
100
AcDbLine
 10
42.536909757
 20
20.9062732777
 30
0.0
 11
42.5339107517
 21
20.9062732777
 31
0.0
  0
LINE
  5
98
330
1F
100
AcDbEntity
  8
0
  6
Continuous
 62
     7
370
    30
100
AcDbLine
 10
42.1049098408
 20
20.8672733015
 30
0.0
 11
42.1049098408
 21
20.9062732777
 31
0.0
  0
LINE
  5
99
330
1F
100
AcDbEntity
  8
0
  6
Continuous
 62
     7
370
    30
100
AcDbLine
 10
42.5339107517
 20
20.8672733015
 30
0.0
 11
42.1049098408
 21
20.8672733015
 31
0.0
  0
LINE
  5
9A
330
1F
100
AcDbEntity
  8
0
  6
Continuous
 62
     7
370
    30
100
AcDbLine
 10
42.1049098408
 20
20.9062732777
 30
0.0
 11
42.5339107517
 21
20.9062732777
 31
0.0
  0
ARC
  5
9B
330
1F
100
AcDbEntity
  8
0
  6
Continuous
 62
     7
370
    30
100
AcDbCircle
 10
42.5369109066
 20
20.8382735253
 30
0.0
 40
0.0680000000000014
100
AcDbArc
 50
270.0
 51
90.0
  0
LINE
  5
9C
330
1F
100
AcDbEntity
  8
0
  6
Continuous
 62
     7
370
    30
100
AcDbLine
 10
42.536909757
 20
20.8092734649
 30
0.0
 11
42.536909757
 21
20.7702734887
 31
0.0
  0
ARC
  5
9D
330
1F
100
AcDbEntity
  8
0
  6
Continuous
 62
     7
370
    30
100
AcDbCircle
 10
42.5369109066
 20
20.8382735253
 30
0.0
 40
0.0289999999999999
100
AcDbArc
 50
270.0
 51
90.0
  0
LINE
  5
9E
330
1F
100
AcDbEntity
  8
0
  6
Continuous
 62
     7
370
    30
100
AcDbLine
 10
38.5639105334
 20
20.7412734237
 30
0.0
 11
38.5639105334
 21
20.7702734887
 31
0.0
  0
LINE
  5
9F
330
1F
100
AcDbEntity
  8
0
  6
Continuous
 62
     7
370
    30
100
AcDbLine
 10
38.5639105334
 20
20.8092734649
 30
0.0
 11
42.536909757
 21
20.8092734649
 31
0.0
  0
LINE
  5
A0
330
1F
100
AcDbEntity
  8
0
  6
Continuous
 62
     7
370
    30
100
AcDbLine
 10
42.536909757
 20
20.7702734887
 30
0.0
 11
42.536909757
 21
20.7412734237
 31
0.0
  0
LINE
  5
A1
330
1F
100
AcDbEntity
  8
0
  6
Continuous
 62
     7
370
    30
100
AcDbLine
 10
38.5639105334
 20
20.8092734649
 30
0.0
 11
38.5639105334
 21
20.7702734887
 31
0.0
  0
ARC
  5
A2
330
1F
100
AcDbEntity
  8
0
  6
Continuous
 62
     7
370
    30
100
AcDbCircle
 10
38.5639109066
 20
20.8382735253
 30
0.0
 40
0.0290000000000035
100
AcDbArc
 50
195.0901851796
 51
270.0
  0
ARC
  5
A3
330
1F
100
AcDbEntity
  8
0
  6
Continuous
 62
     7
370
    30
100
AcDbCircle
 10
38.5639109066
 20
20.8382735253
 30
0.0
 40
0.0680000000000033
100
AcDbArc
 50
244.7562175912
 51
270.0
  0
LINE
  5
A4
330
1F
100
AcDbEntity
  8
0
  6
Continuous
 62
     7
370
    30
100
AcDbLine
 10
38.5639105334
 20
14.9892735513
 30
0.0
 11
38.5639105334
 21
14.9872735544
 31
0.0
  0
LINE
  5
A5
330
1F
100
AcDbEntity
  8
0
  6
Continuous
 62
     7
370
    30
100
AcDbLine
 10
42.536909757
 20
14.9872735544
 30
0.0
 11
42.536909757
 21
15.0302735244
 31
0.0
  0
LINE
  5
A6
330
1F
100
AcDbEntity
  8
0
  6
Continuous
 62
     7
370
    30
100
AcDbLine
 10
42.536909757
 20
14.9872735544
 30
0.0
 11
38.5639105334
 21
14.9872735544
 31
0.0
  0
CIRCLE
  5
A7
330
1F
100
AcDbEntity
  8
0
  6
Continuous
 62
     7
370
    30
100
AcDbCircle
 10
41.3549109066
 20
15.3332735253
 30
0.0
 40
0.0805000000000007
  0
CIRCLE
  5
A8
330
1F
100
AcDbEntity
  8
0
  6
Continuous
 62
     7
370
    30
100
AcDbCircle
 10
38.9799109066
 20
15.3332735253
 30
0.0
 40
0.0805000000000007
  0
LINE
  5
A9
330
1F
100
AcDbEntity
  8
0
  6
Continuous
 62
     7
370
    30
100
AcDbLine
 10
42.536909757
 20
14.9192735133
 30
0.0
 11
42.536909757
 21
14.9582734895
 31
0.0
  0
ARC
  5
AA
330
1F
100
AcDbEntity
  8
0
  6
Continuous
 62
     7
370
    30
100
AcDbCircle
 10
42.5369109066
 20
14.8902735253
 30
0.0
 40
0.0679999999999996
100
AcDbArc
 50
270.0
 51
90.0
  0
LINE
  5
AB
330
1F
100
AcDbEntity
  8
0
  6
Continuous
 62
     7
370
    30
100
AcDbLine
 10
42.536909757
 20
14.86127353
 30
0.0
 11
42.536909757
 21
14.8222735539
 31
0.0
  0
ARC
  5
AC
330
1F
100
AcDbEntity
  8
0
  6
Continuous
 62
     7
370
    30
100
AcDbCircle
 10
42.5369109066
 20
14.8902735253
 30
0.0
 40
0.0290000000000017
100
AcDbArc
 50
270.0
 51
90.0
  0
LINE
  5
AD
330
1F
100
AcDbEntity
  8
0
  6
Continuous
 62
     7
370
    30
100
AcDbLine
 10
42.5339107517
 20
14.86127353
 30
0.0
 11
42.5339107517
 21
14.8222735539
 31
0.0
  0
LINE
  5
AE
330
1F
100
AcDbEntity
  8
0
  6
Continuous
 62
     7
370
    30
100
AcDbLine
 10
42.5339107517
 20
14.8222735539
 30
0.0
 11
42.1049098408
 21
14.8222735539
 31
0.0
  0
LINE
  5
AF
330
1F
100
AcDbEntity
  8
0
  6
Continuous
 62
     7
370
    30
100
AcDbLine
 10
42.1049098408
 20
14.8222735539
 30
0.0
 11
42.1049098408
 21
14.86127353
 31
0.0
  0
LINE
  5
B0
330
1F
100
AcDbEntity
  8
0
  6
Continuous
 62
     7
370
    30
100
AcDbLine
 10
42.1049098408
 20
14.86127353
 30
0.0
 11
42.5339107517
 21
14.86127353
 31
0.0
  0
LINE
  5
B1
330
1F
100
AcDbEntity
  8
0
  6
Continuous
 62
     7
370
    30
100
AcDbLine
 10
42.5339107517
 20
14.8222735539
 30
0.0
 11
42.536909757
 21
14.8222735539
 31
0.0
  0
LINE
  5
B2
330
1F
100
AcDbEntity
  8
0
  6
Continuous
 62
     7
370
    30
100
AcDbLine
 10
42.5339107517
 20
14.86127353
 30
0.0
 11
42.536909757
 21
14.86127353
 31
0.0
  0
LINE
  5
B3
330
1F
100
AcDbEntity
  8
0
  6
Continuous
 62
     7
370
    30
100
AcDbLine
 10
38.5639105334
 20
14.9582734895
 30
0.0
 11
38.5639105334
 21
14.9872735544
 31
0.0
  0
LINE
  5
B4
330
1F
100
AcDbEntity
  8
0
  6
Continuous
 62
     7
370
    30
100
AcDbLine
 10
42.536909757
 20
14.9192735133
 30
0.0
 11
38.5639105334
 21
14.9192735133
 31
0.0
  0
LINE
  5
B5
330
1F
100
AcDbEntity
  8
0
  6
Continuous
 62
     7
370
    30
100
AcDbLine
 10
42.536909757
 20
14.9872735544
 30
0.0
 11
42.536909757
 21
14.9582734895
 31
0.0
  0
ARC
  5
B6
330
1F
100
AcDbEntity
  8
0
  6
Continuous
 62
     7
370
    30
100
AcDbCircle
 10
38.5639109066
 20
14.8902735253
 30
0.0
 40
0.0679999999999996
100
AcDbArc
 50
90.0
 51
115.2437824088
  0
LINE
  5
B7
330
1F
100
AcDbEntity
  8
0
  6
Continuous
 62
     7
370
    30
100
AcDbLine
 10
38.5639105334
 20
14.9192735133
 30
0.0
 11
38.5639105334
 21
14.9582734895
 31
0.0
  0
ARC
  5
B8
330
1F
100
AcDbEntity
  8
0
  6
Continuous
 62
     7
370
    30
100
AcDbCircle
 10
38.5639109066
 20
14.8902735253
 30
0.0
 40
0.0290000000000025
100
AcDbArc
 50
90.0
 51
164.9098148204
  0
LINE
  5
B9
330
1F
100
AcDbEntity
  8
0
  6
Continuous
 62
     7
370
    30
100
AcDbLine
 10
4.7139106382
 20
19.3637734167
 30
0.0
 11
4.7139106382
 21
25.2387735749
 31
0.0
  0
SPLINE
  5
BA
330
1F
100
AcDbEntity
  8
0
  6
Continuous
 62
     7
370
    30
100
AcDbSpline
210
0.0
220
0.0
230
1.0
 70
     8
 71
     3
 72
    11
 73
     7
 74
     0
 42
0.00000001
 43
0.00000001
 40
0.0
 40
0.0
 40
0.0
 40
0.0
 40
0.2482206565600262
 40
0.5476852925097945
 40
0.8471511407194707
 40
1.0
 40
1.0
 40
1.0
 40
1.0
 10
4.713910638185847
 20
25.23877357491014
 30
0.0
 10
4.714852021295251
 20
25.25042960164752
 30
0.0
 10
4.716929131600184
 20
25.27614798665882
 30
0.0
 10
4.735330483429576
 20
25.31203509874762
 30
0.0
 10
4.759685361787082
 20
25.33896612542996
 30
0.0
 10
4.779287377442373
 20
25.34722817063381
 30
0.0
 10
4.785911406426828
 20
25.35002012978044
 30
0.0
  0
SPLINE
  5
BB
330
1F
100
AcDbEntity
  8
0
  6
Continuous
 62
     7
370
    30
100
AcDbSpline
210
0.0
220
0.0
230
1.0
 70
     8
 71
     3
 72
    11
 73
     7
 74
     0
 42
0.00000001
 43
0.00000001
 40
0.0
 40
0.0
 40
0.0
 40
0.0
 40
0.2679026039703445
 40
0.5663043499664725
 40
0.864696570784353
 40
1.0
 40
1.0
 40
1.0
 40
1.0
 10
4.785911406426828
 20
25.35126502206601
 30
0.0
 10
4.774829864118623
 20
25.34510177676916
 30
0.0
 10
4.751405210828692
 20
25.33207363680415
 30
0.0
 10
4.726699656444399
 20
25.29851965993394
 30
0.0
 10
4.715134395783688
 20
25.26548102785564
 30
0.0
 10
4.714201637952903
 20
25.2451243935686
 30
0.0
 10
4.713910638185847
 20
25.23877357491014
 30
0.0
  0
LINE
  5
BC
330
1F
100
AcDbEntity
  8
0
  6
Continuous
 62
     7
370
    30
100
AcDbLine
 10
1.5579104032
 20
19.3637734167
 30
0.0
 11
1.5579104032
 21
25.2387735749
 31
0.0
  0
LINE
  5
BD
330
1F
100
AcDbEntity
  8
0
  6
Continuous
 62
     7
370
    30
100
AcDbLine
 10
1.5579104032
 20
25.2387735749
 30
0.0
 11
4.7139106382
 21
25.2387735749
 31
0.0
  0
SPLINE
  5
BE
330
1F
100
AcDbEntity
  8
0
  6
Continuous
 62
     7
370
    30
100
AcDbSpline
210
0.0
220
0.0
230
1.0
 70
    11
 71
     3
 72
    26
 73
    22
 74
     0
 42
0.00000001
 43
0.00000001
 40
0.0
 40
0.0
 40
0.0
 40
0.0
 40
0.0536697402929515
 40
0.1073403875566806
 40
0.1610261776033732
 40
0.2147243787682556
 40
0.2684035345752877
 40
0.3220634479022144
 40
0.3757336091423656
 40
0.4294273133743055
 40
0.4831218032851577
 40
0.5367919330704328
 40
0.5904506460238894
 40
0.6441290028302743
 40
0.6978272337853322
 40
0.7515138084542742
 40
0.8051772025442598
 40
0.8588407589588176
 40
0.9125288383684349
 40
0.9662253177486202
 40
1.0
 40
1.0
 40
1.0
 40
1.0
 10
4.182910692342531
 20
24.44363294710919
 30
0.0
 10
4.193449561190771
 20
24.44292421732493
 30
0.0
 10
4.214527476984745
 20
24.44150674577949
 30
0.0
 10
4.242582818236549
 20
24.43042182041728
 30
0.0
 10
4.263915402218878
 20
24.41396992020259
 30
0.0
 10
4.276120465948083
 20
24.39322708121308
 30
0.0
 10
4.277816493627425
 20
24.37062391659941
 30
0.0
 10
4.26881722099545
 20
24.34865190687087
 30
0.0
 10
4.250139833483379
 20
24.32986108332689
 30
0.0
 10
4.223882718807036
 20
24.31647521993767
 30
0.0
 10
4.19300203585449
 20
24.31013015795605
 30
0.0
 10
4.16099042230766
 20
24.31160255757843
 30
0.0
 10
4.13145411332057
 20
24.32070590073653
 30
0.0
 10
4.10771303321463
 20
24.33633004784501
 30
0.0
 10
4.092441020230599
 20
24.35659459441428
 30
0.0
 10
4.087371910306109
 20
24.37911280582144
 30
0.0
 10
4.093067166358252
 20
24.4012928529345
 30
0.0
 10
4.108887994188246
 20
24.42071826377078
 30
0.0
 10
4.13304030630276
 20
24.43517321297677
 30
0.0
 10
4.159181580384072
 20
24.4426088586245
 30
0.0
 10
4.176300624806707
 20
24.44334767330466
 30
0.0
 10
4.182910692342533
 20
24.44363294710919
 30
0.0
  0
SPLINE
  5
BF
330
1F
100
AcDbEntity
  8
0
  6
Continuous
 62
     7
370
    30
100
AcDbSpline
210
0.0
220
0.0
230
1.0
 70
    11
 71
     3
 72
    26
 73
    22
 74
     0
 42
0.00000001
 43
0.00000001
 40
0.0
 40
0.0
 40
0.0
 40
0.0
 40
0.0536696927464319
 40
0.1073387664100327
 40
0.1610256385459673
 40
0.214723526493609
 40
0.2684025865473605
 40
0.3220625098556275
 40
0.3757321014985841
 40
0.4294253989099669
 40
0.4831200963626808
 40
0.5367902361311964
 40
0.59044924260518
 40
0.6441288471819188
 40
0.6978258199673756
 40
0.7515134229426746
 40
0.805176836288102
 40
0.8588400997713066
 40
0.9125269090506063
 40
0.9662253838297307
 40
1.0
 40
1.0
 40
1.0
 40
1.0
 10
4.182910692342533
 20
20.15891433787753
 30
0.0
 10
4.172371754537004
 20
20.15962285058231
 30
0.0
 10
4.151294000493166
 20
20.16103986781915
 30
0.0
 10
4.123239712087057
 20
20.17212613488479
 30
0.0
 10
4.101905946864776
 20
20.18857669658209
 30
0.0
 10
4.089700563731008
 20
20.209319617344
 30
0.0
 10
4.08800638473537
 20
20.23192290225613
 30
0.0
 10
4.097005565046343
 20
20.25389436305635
 30
0.0
 10
4.115681167541258
 20
20.27268672849835
 30
0.0
 10
4.141938990527379
 20
20.28607107020706
 30
0.0
 10
4.172819185593527
 20
20.29241732836636
 30
0.0
 10
4.204831194859049
 20
20.29094491697939
 30
0.0
 10
4.234367019760472
 20
20.28184030743287
 30
0.0
 10
4.258109913767198
 20
20.26621754946438
 30
0.0
 10
4.273379639638233
 20
20.24595233284938
 30
0.0
 10
4.278451551867787
 20
20.22343392840549
 30
0.0
 10
4.272753769596632
 20
20.20125417638386
 30
0.0
 10
4.25693338607139
 20
20.1818293738983
 30
0.0
 10
4.232781935398355
 20
20.16737338076757
 30
0.0
 10
4.20664017057178
 20
20.15993765327517
 30
0.0
 10
4.189520747395553
 20
20.15919939138986
 30
0.0
 10
4.182910692342533
 20
20.15891433787753
 30
0.0
  0
SPLINE
  5
C0
330
1F
100
AcDbEntity
  8
0
  6
Continuous
 62
     7
370
    30
100
AcDbSpline
210
0.0
220
0.0
230
1.0
 70
     8
 71
     3
 72
    12
 73
     8
 74
     0
 42
0.00000001
 43
0.00000001
 40
0.0
 40
0.0
 40
0.0
 40
0.0
 40
0.2404304614012554
 40
0.480857409957417
 40
0.7213661717536973
 40
0.9619246463204302
 40
1.0
 40
1.0
 40
1.0
 40
1.0
 10
4.182910692342533
 20
24.41957871831903
 30
0.0
 10
4.193435871861086
 20
24.41886928120732
 30
0.0
 10
4.21448607711848
 20
24.41745041734924
 30
0.0
 10
4.242746788250875
 20
24.40638682300256
 30
0.0
 10
4.263296478231333
 20
24.38987090728598
 30
0.0
 10
4.27418617177635
 20
24.37513493445075
 30
0.0
 10
4.274578946681074
 20
24.36653430231764
 30
0.0
 10
4.274632619429671
 20
24.36535902466956
 30
0.0
  0
SPLINE
  5
C1
330
1F
100
AcDbEntity
  8
0
  6
Continuous
 62
     7
370
    30
100
AcDbSpline
210
0.0
220
0.0
230
1.0
 70
     8
 71
     3
 72
    11
 73
     7
 74
     0
 42
0.00000001
 43
0.00000001
 40
0.0
 40
0.0
 40
0.0
 40
0.0
 40
0.2542568124508849
 40
0.5378794655206819
 40
0.821552421847829
 40
0.9999999999999999
 40
0.9999999999999999
 40
0.9999999999999999
 40
0.9999999999999999
 10
4.096354892242521
 20
24.37875364326711
 30
0.0
 10
4.100471691636455
 20
24.38471889014312
 30
0.0
 10
4.109180767457548
 20
24.39733835064226
 30
0.0
 10
4.133189821391889
 20
24.41107334971095
 30
0.0
 10
4.159157798906667
 20
24.41856240031564
 30
0.0
 10
4.176293681248546
 20
24.419295595443
 30
0.0
 10
4.182910692342533
 20
24.41957871831903
 30
0.0
  0
SPLINE
  5
C2
330
1F
100
AcDbEntity
  8
0
  6
Continuous
 62
     7
370
    30
100
AcDbSpline
210
0.0
220
0.0
230
1.0
 70
     8
 71
     3
 72
    12
 73
     8
 74
     0
 42
0.00000001
 43
0.00000001
 40
0.0
 40
0.0
 40
0.0
 40
0.0
 40
0.24480679239221
 40
0.4896107680249572
 40
0.7344949275289039
 40
0.9794320631906058
 40
1.0
 40
1.0
 40
1.0
 40
1.0
 10
4.182910692342533
 20
20.18296827333775
 30
0.0
 10
4.172387381345139
 20
20.18367791230169
 30
0.0
 10
4.151340880432117
 20
20.18509718206443
 30
0.0
 10
4.123052205485295
 20
20.19615773813341
 30
0.0
 10
4.102609565459335
 20
20.212686618126
 30
0.0
 10
4.091816096793769
 20
20.22687929674643
 30
0.0
 10
4.091348209736418
 20
20.23491599233495
 30
0.0
 10
4.091311963832192
 20
20.23553857270783
 30
0.0
  0
SPLINE
  5
C3
330
1F
100
AcDbEntity
  8
0
  6
Continuous
 62
     7
370
    30
100
AcDbSpline
210
0.0
220
0.0
230
1.0
 70
     8
 71
     3
 72
    12
 73
     8
 74
     0
 42
0.00000001
 43
0.00000001
 40
0.0
 40
0.0
 40
0.0
 40
0.0
 40
0.1176024864425493
 40
0.3606523735471218
 40
0.6038110751971725
 40
0.8470118749398675
 40
1.0
 40
1.0
 40
1.0
 40
1.0
 10
4.273771402711853
 20
20.23629243066586
 30
0.0
 10
4.27310421729037
 20
20.23272968329715
 30
0.0
 10
4.271058155058761
 20
20.22180378084606
 30
0.0
 10
4.256582829380322
 20
20.20592978779572
 30
0.0
 10
4.232878747552775
 20
20.19141074035984
 30
0.0
 10
4.206627666161399
 20
20.18399373518969
 30
0.0
 10
4.189517697055411
 20
20.18325394348017
 30
0.0
 10
4.182910692342533
 20
20.18296827333775
 30
0.0
  0
LINE
  5
C4
330
1F
100
AcDbEntity
  8
0
  6
Continuous
 62
     7
370
    30
100
AcDbLine
 10
4.7139106382
 20
10.4897737699
 30
0.0
 11
4.7139106382
 21
16.3647734881
 31
0.0
  0
SPLINE
  5
C5
330
1F
100
AcDbEntity
  8
0
  6
Continuous
 62
     7
370
    30
100
AcDbSpline
210
0.0
220
0.0
230
1.0
 70
     8
 71
     3
 72
    11
 73
     7
 74
     0
 42
0.00000001
 43
0.00000001
 40
0.0
 40
0.0
 40
0.0
 40
0.0
 40
0.2482215326286466
 40
0.5476847962911657
 40
0.8471524862984445
 40
1.0
 40
1.0
 40
1.0
 40
1.0
 10
4.713910638185847
 20
16.36477348811639
 30
0.0
 10
4.714852000331664
 20
16.37642957788113
 30
0.0
 10
4.716929055168959
 20
16.40214798788669
 30
0.0
 10
4.735330705954818
 20
16.43803494327876
 30
0.0
 10
4.759685108400042
 20
16.46496654435625
 30
0.0
 10
4.779287362460366
 20
16.47322820482572
 30
0.0
 10
4.785911406426828
 20
16.47602000632045
 30
0.0
  0
SPLINE
  5
C6
330
1F
100
AcDbEntity
  8
0
  6
Continuous
 62
     7
370
    30
100
AcDbSpline
210
0.0
220
0.0
230
1.0
 70
     8
 71
     3
 72
    11
 73
     7
 74
     0
 42
0.00000001
 43
0.00000001
 40
0.0
 40
0.0
 40
0.0
 40
0.0
 40
0.267903389248317
 40
0.5663024787578276
 40
0.864697526712261
 40
1.0
 40
1.0
 40
1.0
 40
1.0
 10
4.785911406426828
 20
16.47726519193596
 30
0.0
 10
4.774829891657906
 20
16.4711018226326
 30
0.0
 10
4.751405442644254
 20
16.45807350177489
 30
0.0
 10
4.726699389599954
 20
16.42451980797339
 30
0.0
 10
4.715134452051642
 20
16.39148100138009
 30
0.0
 10
4.714201648808827
 20
16.37112426603323
 30
0.0
 10
4.713910638185847
 20
16.36477348811639
 30
0.0
  0
LINE
  5
C7
330
1F
100
AcDbEntity
  8
0
  6
Continuous
 62
     7
370
    30
100
AcDbLine
 10
1.5579104032
 20
16.3647734881
 30
0.0
 11
4.7139106382
 21
16.3647734881
 31
0.0
  0
SPLINE
  5
C8
330
1F
100
AcDbEntity
  8
0
  6
Continuous
 62
     7
370
    30
100
AcDbSpline
210
0.0
220
0.0
230
1.0
 70
    11
 71
     3
 72
    26
 73
    22
 74
     0
 42
0.00000001
 43
0.00000001
 40
0.0
 40
0.0
 40
0.0
 40
0.0
 40
0.0536696780243844
 40
0.107340549725824
 40
0.1610260117764898
 40
0.2147240869975405
 40
0.2684032380648458
 40
0.3220631894678532
 40
0.3757338217669142
 40
0.4294271565499404
 40
0.4831217651888848
 40
0.5367918873698799
 40
0.5904507905168628
 40
0.6441288688271732
 40
0.6978269766452662
 40
0.7515139853536512
 40
0.8051771150819612
 40
0.8588405531653406
 40
0.9125288549302493
 40
0.9662253614389632
 40
0.9999999999999999
 40
0.9999999999999999
 40
0.9999999999999999
 40
0.9999999999999999
 10
4.182910692342531
 20
15.56963286031544
 30
0.0
 10
4.193449579873467
 20
15.56892430015485
 30
0.0
 10
4.214527589332653
 20
15.56750716407445
 30
0.0
 10
4.242582644448171
 20
15.55642142886589
 30
0.0
 10
4.263915468774665
 20
15.53997017756785
 30
0.0
 10
4.276120456880599
 20
15.51922734025093
 30
0.0
 10
4.277816515709973
 20
15.49662415612316
 30
0.0
 10
4.268817112028382
 20
15.47465225132413
 30
0.0
 10
4.250140082022735
 20
15.45586063352348
 30
0.0
 10
4.223882524602208
 20
15.44247577072864
 30
0.0
 10
4.193002119129432
 20
15.43612994958829
 30
0.0
 10
4.160990323125255
 20
15.43760231586958
 30
0.0
 10
4.13145427326184
 20
15.44670635292738
 30
0.0
 10
4.107712976172734
 20
15.46232993431056
 30
0.0
 10
4.092440972861903
 20
15.48259444107513
 30
0.0
 10
4.087371917770571
 20
15.5051130117493
 30
0.0
 10
4.093067161917815
 20
15.5272928412046
 30
0.0
 10
4.108888081574416
 20
15.54671810096852
 30
0.0
 10
4.133040242199733
 20
15.56117338625851
 30
0.0
 10
4.159181557834763
 20
15.56860924819795
 30
0.0
 10
4.176300623791141
 20
15.56934771943664
 30
0.0
 10
4.182910692342533
 20
15.56963286031544
 30
0.0
  0
SPLINE
  5
C9
330
1F
100
AcDbEntity
  8
0
  6
Continuous
 62
     7
370
    30
100
AcDbSpline
210
0.0
220
0.0
230
1.0
 70
    11
 71
     3
 72
    26
 73
    22
 74
     0
 42
0.00000001
 43
0.00000001
 40
0.0
 40
0.0
 40
0.0
 40
0.0
 40
0.0536696818859852
 40
0.1073389113720336
 40
0.1610255140488538
 40
0.2147237143359808
 40
0.2684027635273901
 40
0.3220626759771872
 40
0.3757322567597175
 40
0.429425543305877
 40
0.4831201311138198
 40
0.5367902600217982
 40
0.5904491138656763
 40
0.6441287075799628
 40
0.6978256694994526
 40
0.7515132616106805
 40
0.8051766640969319
 40
0.8588402196343004
 40
0.9125270180496896
 40
0.9662253544861705
 40
1.0
 40
1.0
 40
1.0
 40
1.0
 10
4.182910692342531
 20
11.2849141044188
 30
0.0
 10
4.172371742080781
 20
11.28562258078479
 30
0.0
 10
4.151293930393658
 20
11.28703952754478
 30
0.0
 10
4.123239850399439
 20
11.29812634733188
 30
0.0
 10
4.101905814074189
 20
11.31457636264287
 30
0.0
 10
4.089700613288611
 20
11.33531972492908
 30
0.0
 10
4.088006372786814
 20
11.35792293545829
 30
0.0
 10
4.097005566709459
 20
11.37989443657419
 30
0.0
 10
4.115681172839887
 20
11.39868676044102
 30
0.0
 10
4.141938951552742
 20
11.41207121997907
 30
0.0
 10
4.172819232462208
 20
11.41841701817974
 30
0.0
 10
4.204831134235635
 20
11.41694461529877
 30
0.0
 10
4.234367071367627
 20
11.40784044721489
 30
0.0
 10
4.25810990617296
 20
11.39221758316501
 30
0.0
 10
4.273379639293599
 20
11.37195240368948
 30
0.0
 10
4.278451560836554
 20
11.3494339705784
 30
0.0
 10
4.272753723364969
 20
11.32725425432911
 30
0.0
 10
4.256933450132625
 20
11.30782914171829
 30
0.0
 10
4.232781977963398
 20
11.2933730285644
 30
0.0
 10
4.206640116849404
 20
11.28593789290936
 30
0.0
 10
4.189520742516128
 20
11.28519929015046
 30
0.0
 10
4.182910692342533
 20
11.2849141044188
 30
0.0
  0
LINE
  5
CA
330
1F
100
AcDbEntity
  8
0
  6
Continuous
 62
     7
370
    30
100
AcDbLine
 10
1.5579104032
 20
10.4897737699
 30
0.0
 11
1.5579104032
 21
16.3647734881
 31
0.0
  0
SPLINE
  5
CB
330
1F
100
AcDbEntity
  8
0
  6
Continuous
 62
     7
370
    30
100
AcDbSpline
210
0.0
220
0.0
230
1.0
 70
     8
 71
     3
 72
    12
 73
     8
 74
     0
 42
0.00000001
 43
0.00000001
 40
0.0
 40
0.0
 40
0.0
 40
0.0
 40
0.240430327620066
 40
0.4808578566357317
 40
0.7213645703580145
 40
0.96192269789182
 40
1.0
 40
1.0
 40
1.0
 40
1.0
 10
4.182910692342533
 20
15.54557881485649
 30
0.0
 10
4.193435885193396
 20
15.54486939794655
 30
0.0
 10
4.214486148382087
 20
15.54345057238427
 30
0.0
 10
4.242746607569807
 20
15.53238646009662
 30
0.0
 10
4.263296583738793
 20
15.5158711049441
 30
0.0
 10
4.274186217816953
 20
15.50113551254926
 30
0.0
 10
4.274578950071402
 20
15.49253434243049
 30
0.0
 10
4.274632619429671
 20
15.49135893787581
 30
0.0
  0
SPLINE
  5
CC
330
1F
100
AcDbEntity
  8
0
  6
Continuous
 62
     7
370
    30
100
AcDbSpline
210
0.0
220
0.0
230
1.0
 70
     8
 71
     3
 72
    12
 73
     8
 74
     0
 42
0.00000001
 43
0.00000001
 40
0.0
 40
0.0
 40
0.0
 40
0.0
 40
0.1267779818351178
 40
0.367297116590907
 40
0.6079283158511172
 40
0.8486018428907985
 40
1.0
 40
1.0
 40
1.0
 40
1.0
 10
4.091808278098729
 20
15.49131361839934
 30
0.0
 10
4.092521489702859
 20
15.49519769390391
 30
0.0
 10
4.094587783564958
 20
15.50645051330362
 30
0.0
 10
4.109213126764644
 20
15.52262297674776
 30
0.0
 10
4.132949611742939
 20
15.53713457355514
 30
0.0
 10
4.1591926932662
 20
15.54455355234568
 30
0.0
 10
4.176303405097007
 20
15.5452932003791
 30
0.0
 10
4.182910692342533
 20
15.54557881485649
 30
0.0
  0
SPLINE
  5
CD
330
1F
100
AcDbEntity
  8
0
  6
Continuous
 62
     7
370
    30
100
AcDbSpline
210
0.0
220
0.0
230
1.0
 70
     8
 71
     3
 72
    12
 73
     8
 74
     0
 42
0.00000001
 43
0.00000001
 40
0.0
 40
0.0
 40
0.0
 40
0.0
 40
0.24480679239221
 40
0.4896107680249572
 40
0.7344949275289039
 40
0.9794320631906058
 40
1.0
 40
1.0
 40
1.0
 40
1.0
 10
4.182910692342533
 20
11.30896833320897
 30
0.0
 10
4.172387381345139
 20
11.30967797217291
 30
0.0
 10
4.151340880432117
 20
11.31109724193565
 30
0.0
 10
4.123052205485295
 20
11.32215779800463
 30
0.0
 10
4.102609565459335
 20
11.33868667799722
 30
0.0
 10
4.091816096793769
 20
11.35287935661766
 30
0.0
 10
4.091348209736418
 20
11.36091605220617
 30
0.0
 10
4.091311963832192
 20
11.36153863257905
 30
0.0
  0
SPLINE
  5
CE
330
1F
100
AcDbEntity
  8
0
  6
Continuous
 62
     7
370
    30
100
AcDbSpline
210
0.0
220
0.0
230
1.0
 70
     8
 71
     3
 72
    12
 73
     8
 74
     0
 42
0.00000001
 43
0.00000001
 40
0.0
 40
0.0
 40
0.0
 40
0.0
 40
0.1176024864425493
 40
0.3606523735471218
 40
0.6038110751971725
 40
0.8470118749398675
 40
1.0
 40
1.0
 40
1.0
 40
1.0
 10
4.273771402711853
 20
11.36229249053708
 30
0.0
 10
4.27310421729037
 20
11.35872974316837
 30
0.0
 10
4.271058155058761
 20
11.34780384071728
 30
0.0
 10
4.256582829380322
 20
11.33192984766695
 30
0.0
 10
4.232878747552775
 20
11.31741080023106
 30
0.0
 10
4.206627666161399
 20
11.30999379506091
 30
0.0
 10
4.189517697055411
 20
11.30925400335139
 30
0.0
 10
4.182910692342533
 20
11.30896833320897
 30
0.0
  0
ARC
  5
CF
330
1F
100
AcDbEntity
  8
0
  6
Continuous
 62
     7
370
    30
100
AcDbCircle
 10
38.1209109066
 20
17.8642735253
 30
0.0
 40
0.0470000000000041
100
AcDbArc
 50
180.0
 51
283.0269950823
  0
ARC
  5
D0
330
1F
100
AcDbEntity
  8
0
  6
Continuous
 62
     7
370
    30
100
AcDbCircle
 10
38.1209109066
 20
17.8642735253
 30
0.0
 40
0.0470000000000041
100
AcDbArc
 50
31.7332750225
 51
180.0
  0
LWPOLYLINE
  5
D1
330
1F
100
AcDbEntity
  8
0
  6
Continuous
 62
     7
370
    30
100
AcDbPolyline
 90
        3
 70
   128
 43
0.0
 10
38.467461301
 20
8.3774473451
 10
38.4757003524
 20
8.3844831571
 10
38.4827872039
 20
8.3927902611
  0
LINE
  5
D2
330
1F
100
AcDbEntity
  8
0
  6
Continuous
 62
     7
370
    30
100
AcDbLine
 10
4.7973958604
 20
8.3271125132
 30
0.0
 11
4.7859114064
 21
8.3271125132
 31
0.0
  0
LINE
  5
D3
330
1F
100
AcDbEntity
  8
0
  6
Continuous
 62
     7
370
    30
100
AcDbLine
 10
4.7859114064
 20
8.3921120823
 30
0.0
 11
4.7859114064
 21
8.3271125132
 31
0.0
  0
LINE
  5
D4
330
1F
100
AcDbEntity
  8
0
  6
Continuous
 62
     7
370
    30
100
AcDbLine
 10
22.8374262338
 20
8.2592735102
 30
0.0
 11
38.4680714272
 21
8.2592735102
 31
0.0
  0
LINE
  5
D5
330
1F
100
AcDbEntity
  8
0
  6
Continuous
 62
     7
370
    30
100
AcDbLine
 10
22.8374262338
 20
8.2992737415
 30
0.0
 11
38.4680714272
 21
8.2992737415
 31
0.0
  0
LINE
  5
D6
330
1F
100
AcDbEntity
  8
0
  6
Continuous
 62
     7
370
    30
100
AcDbLine
 10
38.4680714272
 20
8.2992737415
 30
0.0
 11
38.4680714272
 21
8.2592735102
 31
0.0
  0
LINE
  5
D7
330
1F
100
AcDbEntity
  8
0
  6
Continuous
 62
     7
370
    30
100
AcDbLine
 10
38.495911959
 20
8.3271125132
 30
0.0
 11
38.5359104302
 21
8.3271125132
 31
0.0
  0
LINE
  5
D8
330
1F
100
AcDbEntity
  8
0
  6
Continuous
 62
     7
370
    30
100
AcDbLine
 10
38.5359104302
 20
8.3271125132
 30
0.0
 11
38.5359104302
 21
8.3921120823
 31
0.0
  0
LINE
  5
D9
330
1F
100
AcDbEntity
  8
0
  6
Continuous
 62
     7
370
    30
100
AcDbLine
 10
38.495911959
 20
8.3271125132
 30
0.0
 11
38.495911959
 21
8.3921120823
 31
0.0
  0
SPLINE
  5
DA
330
1F
100
AcDbEntity
  8
0
  6
Continuous
 62
     7
370
    30
100
AcDbSpline
210
0.0
220
0.0
230
1.0
 70
     8
 71
     3
 72
    11
 73
     7
 74
     0
 42
0.00000001
 43
0.00000001
 40
0.0
 40
0.0
 40
0.0
 40
0.0
 40
0.2129923377591854
 40
0.4753139995498259
 40
0.7376501903677088
 40
1.0
 40
1.0
 40
1.0
 40
1.0
 10
38.46807142724006
 20
8.329171689407408
 30
0.0
 10
38.47125483385341
 20
8.32902564965591
 30
0.0
 10
38.47835892851479
 20
8.328699747141728
 30
0.0
 10
38.48761122931757
 20
8.328193077830758
 30
0.0
 10
38.49455885872352
 20
8.327652823819188
 30
0.0
 10
38.49546091774132
 20
8.327292619853019
 30
0.0
 10
38.49591195895719
 20
8.327112513195187
 30
0.0
  0
SPLINE
  5
DB
330
1F
100
AcDbEntity
  8
0
  6
Continuous
 62
     7
370
    30
100
AcDbSpline
210
0.0
220
0.0
230
1.0
 70
     8
 71
     3
 72
    11
 73
     7
 74
     0
 42
0.00000001
 43
0.00000001
 40
0.0
 40
0.0
 40
0.0
 40
0.0
 40
0.2805398902391241
 40
0.5610839645676642
 40
0.8416280388962041
 40
1.0
 40
1.0
 40
1.0
 40
1.0
 10
38.46807142724006
 20
8.29927374145772
 30
0.0
 10
38.4678915226846
 20
8.299722449771318
 30
0.0
 10
38.46753171089051
 20
8.30061987309074
 30
0.0
 10
38.46699191126448
 20
8.30758904135162
 30
0.0
 10
38.46653078402414
 20
8.315962903471258
 30
0.0
 10
38.46624889533996
 20
8.322070052714519
 30
0.0
 10
38.46614718280242
 20
8.324273665989791
 30
0.0
  0
ARC
  5
DC
330
1F
100
AcDbEntity
  8
0
  6
Continuous
 62
     7
370
    30
100
AcDbCircle
 10
38.0669109066
 20
17.8217735253
 30
0.0
 40
0.0940000000000019
100
AcDbArc
 50
20.2272604753
 51
66.7437942012
  0
SPLINE
  5
DD
330
1F
100
AcDbEntity
  8
0
  6
Continuous
 62
     7
370
    30
100
AcDbSpline
210
0.0
220
0.0
230
1.0
 70
     8
 71
     3
 72
    11
 73
     7
 74
     0
 42
0.00000001
 43
0.00000001
 40
0.0
 40
0.0
 40
0.0
 40
0.0
 40
0.249997799467098
 40
0.499998170813672
 40
0.7500007788165003
 40
1.0
 40
1.0
 40
1.0
 40
1.0
 10
38.46591017220706
 20
8.394273337347615
 30
0.0
 10
38.46609107331063
 20
8.385100861011098
 30
0.0
 10
38.4664528773788
 20
8.36675581397522
 30
0.0
 10
38.46699180853673
 20
8.34361789056895
 30
0.0
 10
38.46753173740501
 20
8.327429741885156
 30
0.0
 10
38.46789153144074
 20
8.32532568653756
 30
0.0
 10
38.46807142724006
 20
8.324273665989791
 30
0.0
  0
LINE
  5
DE
330
1F
100
AcDbEntity
  8
0
  6
Continuous
 62
     7
370
    30
100
AcDbLine
 10
22.8374262338
 20
8.324273666
 30
0.0
 11
38.4680714272
 21
8.324273666
 31
0.0
  0
LINE
  5
DF
330
1F
100
AcDbEntity
  8
0
  6
Continuous
 62
     7
370
    30
100
AcDbLine
 10
38.4680714272
 20
8.324273666
 30
0.0
 11
38.4680714272
 21
8.3642733106
 31
0.0
  0
LINE
  5
E0
330
1F
100
AcDbEntity
  8
0
  6
Continuous
 62
     7
370
    30
100
AcDbLine
 10
22.8374262338
 20
27.4492734257
 30
0.0
 11
38.4680714272
 21
27.4492734257
 31
0.0
  0
SPLINE
  5
E1
330
1F
100
AcDbEntity
  8
0
  6
Continuous
 62
     7
370
    30
100
AcDbSpline
210
0.0
220
0.0
230
1.0
 70
     8
 71
     3
 72
    11
 73
     7
 74
     0
 42
0.00000001
 43
0.00000001
 40
0.0
 40
0.0
 40
0.0
 40
0.0
 40
0.2499979050395713
 40
0.4999991968806409
 40
0.7499982520772314
 40
1.0
 40
1.0
 40
1.0
 40
1.0
 10
38.46807142724006
 20
27.4492734256939
 30
0.0
 10
38.46789153137264
 20
27.44822140509737
 30
0.0
 10
38.46753173720069
 20
27.44611734965224
 30
0.0
 10
38.46699180935401
 20
27.42992920169995
 30
0.0
 10
38.46645287053104
 20
27.40679111309765
 30
0.0
 10
38.46609107229786
 20
27.38844584908247
 30
0.0
 10
38.46591017220706
 20
27.37927316767619
 30
0.0
  0
SPLINE
  5
E2
330
1F
100
AcDbEntity
  8
0
  6
Continuous
 62
     7
370
    30
100
AcDbSpline
210
0.0
220
0.0
230
1.0
 70
     8
 71
     3
 72
    11
 73
     7
 74
     0
 42
0.00000001
 43
0.00000001
 40
0.0
 40
0.0
 40
0.0
 40
0.0
 40
0.250010695945076
 40
0.4999994567582621
 40
0.75000555724761
 40
1.0
 40
1.0
 40
1.0
 40
1.0
 10
38.46591017220706
 20
27.37927316767619
 30
0.0
 10
38.47508334477228
 20
27.37945360223186
 30
0.0
 10
38.49342888507815
 20
27.37981445551244
 30
0.0
 10
38.51656609353563
 20
27.38035332073067
 30
0.0
 10
38.53275603718118
 20
27.38089509598383
 30
0.0
 10
38.53485898222061
 20
27.38125464992845
 30
0.0
 10
38.53591043022477
 20
27.38143442270918
 30
0.0
  0
LINE
  5
E3
330
1F
100
AcDbEntity
  8
0
  6
Continuous
 62
     7
370
    30
100
AcDbLine
 10
38.5359104302
 20
27.3814344227
 30
0.0
 11
38.495911959
 21
27.3814344227
 31
0.0
  0
LINE
  5
E4
330
1F
100
AcDbEntity
  8
0
  6
Continuous
 62
     7
370
    30
100
AcDbLine
 10
38.4659101722
 20
8.3942733373
 30
0.0
 11
38.4659101722
 21
27.3792731677
 31
0.0
  0
CIRCLE
  5
E5
330
1F
100
AcDbEntity
  8
0
  6
Continuous
 62
     7
370
    30
100
AcDbCircle
 10
37.4109109066
 20
8.8552735253
 30
0.0
 40
0.0940000000000012
  0
CIRCLE
  5
E6
330
1F
100
AcDbEntity
  8
0
  6
Continuous
 62
     7
370
    30
100
AcDbCircle
 10
26.9109109066
 20
8.8552735253
 30
0.0
 40
0.0940000000000012
  0
CIRCLE
  5
E7
330
1F
100
AcDbEntity
  8
0
  6
Continuous
 62
     7
370
    30
100
AcDbCircle
 10
16.4109109066
 20
8.8552735253
 30
0.0
 40
0.0940000000000012
  0
CIRCLE
  5
E8
330
1F
100
AcDbEntity
  8
0
  6
Continuous
 62
     7
370
    30
100
AcDbCircle
 10
5.9109109066
 20
8.8552735253
 30
0.0
 40
0.0939999999999976
  0
CIRCLE
  5
E9
330
1F
100
AcDbEntity
  8
0
  6
Continuous
 62
     7
370
    30
100
AcDbCircle
 10
5.9109109066
 20
26.9182735253
 30
0.0
 40
0.0939999999999976
  0
CIRCLE
  5
EA
330
1F
100
AcDbEntity
  8
0
  6
Continuous
 62
     7
370
    30
100
AcDbCircle
 10
16.4109109066
 20
26.9182735253
 30
0.0
 40
0.0940000000000012
  0
CIRCLE
  5
EB
330
1F
100
AcDbEntity
  8
0
  6
Continuous
 62
     7
370
    30
100
AcDbCircle
 10
26.9109109066
 20
26.9182735253
 30
0.0
 40
0.0940000000000012
  0
CIRCLE
  5
EC
330
1F
100
AcDbEntity
  8
0
  6
Continuous
 62
     7
370
    30
100
AcDbCircle
 10
37.4109109066
 20
26.9182735253
 30
0.0
 40
0.0940000000000012
  0
CIRCLE
  5
ED
330
1F
100
AcDbEntity
  8
0
  6
Continuous
 62
     7
370
    30
100
AcDbCircle
 10
38.0669109066
 20
17.8867735253
 30
0.0
 40
0.0940000000000012
  0
CIRCLE
  5
EE
330
1F
100
AcDbEntity
  8
0
  6
Continuous
 62
     7
370
    30
100
AcDbCircle
 10
38.0669109066
 20
9.8867735253
 30
0.0
 40
0.0939999999999976
  0
CIRCLE
  5
EF
330
1F
100
AcDbEntity
  8
0
  6
Continuous
 62
     7
370
    30
100
AcDbCircle
 10
38.0669109066
 20
25.8867735253
 30
0.0
 40
0.0939999999999976
  0
CIRCLE
  5
F0
330
1F
100
AcDbEntity
  8
0
  6
Continuous
 62
     7
370
    30
100
AcDbCircle
 10
5.2549109066
 20
25.8867735253
 30
0.0
 40
0.0939999999999976
  0
CIRCLE
  5
F1
330
1F
100
AcDbEntity
  8
0
  6
Continuous
 62
     7
370
    30
100
AcDbCircle
 10
5.2549109066
 20
9.8867735253
 30
0.0
 40
0.0939999999999959
  0
CIRCLE
  5
F2
330
1F
100
AcDbEntity
  8
0
  6
Continuous
 62
     7
370
    30
100
AcDbCircle
 10
5.2549109066
 20
17.8867735253
 30
0.0
 40
0.0940000000000012
  0
LINE
  5
F3
330
1F
100
AcDbEntity
  8
0
  6
Continuous
 62
     7
370
    30
100
AcDbLine
 10
38.5359104302
 20
8.3921120823
 30
0.0
 11
38.5359104302
 21
27.3814344227
 31
0.0
  0
SPLINE
  5
F4
330
1F
100
AcDbEntity
  8
0
  6
Continuous
 62
     7
370
    30
100
AcDbSpline
210
0.0
220
0.0
230
1.0
 70
     8
 71
     3
 72
    11
 73
     7
 74
     0
 42
0.00000001
 43
0.00000001
 40
0.0
 40
0.0
 40
0.0
 40
0.0
 40
0.2499945489373359
 40
0.5000005432395555
 40
0.7499894102400985
 40
1.0
 40
1.0
 40
1.0
 40
1.0
 10
38.53591043022477
 20
8.392112082314618
 30
0.0
 10
38.53485898414795
 20
8.392292190270002
 30
0.0
 10
38.53275604385652
 20
8.39265241442655
 30
0.0
 10
38.51656608142125
 20
8.3931926817957
 30
0.0
 10
38.49342889901958
 20
8.393733054900203
 30
0.0
 10
38.4750833468222
 20
8.39409323798236
 30
0.0
 10
38.46591017220706
 20
8.394273337347615
 30
0.0
  0
LINE
  5
F5
330
1F
100
AcDbEntity
  8
0
  6
Continuous
 62
     7
370
    30
100
AcDbLine
 10
38.4680714272
 20
27.4492734257
 30
0.0
 11
38.4680714272
 21
27.4092737811
 31
0.0
  0
SPLINE
  5
F6
330
1F
100
AcDbEntity
  8
0
  6
Continuous
 62
     7
370
    30
100
AcDbSpline
210
0.0
220
0.0
230
1.0
 70
     8
 71
     3
 72
     9
 73
     5
 74
     0
 42
0.00000001
 43
0.00000001
 40
0.0
 40
0.0
 40
0.0
 40
0.0
 40
0.3118670362308749
 40
1.0
 40
1.0
 40
1.0
 40
1.0
 10
4.798116278768434
 20
8.392897619906687
 30
0.0
 10
4.795592071821235
 20
8.392815860458667
 30
0.0
 10
4.787498215613451
 20
8.392553699221589
 30
0.0
 10
4.786558236819907
 20
8.392292098437498
 30
0.0
 10
4.785911406426825
 20
8.392112082314616
 30
0.0
  0
LINE
  5
F7
330
1F
100
AcDbEntity
  8
0
  6
Continuous
 62
     7
370
    30
100
AcDbLine
 10
4.7859114064
 20
8.3921120823
 30
0.0
 11
4.7911174263
 21
8.3921120823
 31
0.0
  0
LINE
  5
F8
330
1F
100
AcDbEntity
  8
0
  6
Continuous
 62
     7
370
    30
100
AcDbLine
 10
4.7859114064
 20
27.3814344227
 30
0.0
 11
4.7859114064
 21
8.3921120823
 31
0.0
  0
SPLINE
  5
F9
330
1F
100
AcDbEntity
  8
0
  6
Continuous
 62
     7
370
    30
100
AcDbSpline
210
0.0
220
0.0
230
1.0
 70
     8
 71
     3
 72
     9
 73
     5
 74
     0
 42
0.00000001
 43
0.00000001
 40
0.0
 40
0.0
 40
0.0
 40
0.0
 40
0.7113844800392938
 40
0.9999999999999999
 40
0.9999999999999999
 40
0.9999999999999999
 40
0.9999999999999999
 10
4.785911406426825
 20
27.38143442270919
 30
0.0
 10
4.786519994834824
 20
27.38125464177287
 30
0.0
 10
4.787375493408485
 20
27.38100192198298
 30
0.0
 10
4.795151565371301
 20
27.38074844282976
 30
0.0
 10
4.797395860424102
 20
27.38067528481215
 30
0.0
  0
LINE
  5
FA
330
1F
100
AcDbEntity
  8
0
  6
Continuous
 62
     7
370
    30
100
AcDbLine
 10
4.7859114064
 20
27.3814344227
 30
0.0
 11
4.7973958604
 21
27.3814344227
 31
0.0
  0
LINE
  5
FB
330
1F
100
AcDbEntity
  8
0
  6
Continuous
 62
     7
370
    30
100
AcDbLine
 10
38.5359104302
 20
8.3921120823
 30
0.0
 11
38.495911959
 21
8.3921120823
 31
0.0
  0
LINE
  5
FC
330
1F
100
AcDbEntity
  8
0
  6
Continuous
 62
     7
370
    30
100
AcDbLine
 10
38.5639105334
 20
14.9892735513
 30
0.0
 11
38.5639105334
 21
20.7392735002
 31
0.0
  0
LINE
  5
FD
330
1F
100
AcDbEntity
  8
0
  6
Continuous
 62
     7
370
    30
100
AcDbLine
 10
38.5639105334
 20
14.9892735513
 30
0.0
 11
38.5359104302
 21
14.9892735513
 31
0.0
  0
LINE
  5
FE
330
1F
100
AcDbEntity
  8
0
  6
Continuous
 62
     7
370
    30
100
AcDbLine
 10
38.5639105334
 20
20.7392735002
 30
0.0
 11
38.5359104302
 21
20.7392735002
 31
0.0
  0
LINE
  5
FF
330
1F
100
AcDbEntity
  8
0
  6
Continuous
 62
     7
370
    30
100
AcDbLine
 10
42.4959116173
 20
14.9892735513
 30
0.0
 11
43.1049115154
 21
15.5982735228
 31
0.0
  0
LINE
  5
100
330
1F
100
AcDbEntity
  8
0
  6
Continuous
 62
     7
370
    30
100
AcDbLine
 10
42.4959116173
 20
14.9892735513
 30
0.0
 11
38.5639105334
 21
14.9892735513
 31
0.0
  0
LINE
  5
101
330
1F
100
AcDbEntity
  8
0
  6
Continuous
 62
     7
370
    30
100
AcDbLine
 10
42.4959116173
 20
20.7392735002
 30
0.0
 11
38.5639105334
 21
20.7392735002
 31
0.0
  0
LINE
  5
102
330
1F
100
AcDbEntity
  8
0
  6
Continuous
 62
     7
370
    30
100
AcDbLine
 10
43.1049115154
 20
20.1302736021
 30
0.0
 11
42.4959116173
 21
20.7392735002
 31
0.0
  0
LINE
  5
103
330
1F
100
AcDbEntity
  8
0
  6
Continuous
 62
     7
370
    30
100
AcDbLine
 10
43.1049115154
 20
15.5982735228
 30
0.0
 11
43.1049115154
 21
20.1302736021
 31
0.0
  0
CIRCLE
  5
104
330
1F
100
AcDbEntity
  8
0
  6
Continuous
 62
     7
370
    30
100
AcDbCircle
 10
38.9799109066
 20
15.3332735253
 30
0.0
 40
0.09375
  0
CIRCLE
  5
105
330
1F
100
AcDbEntity
  8
0
  6
Continuous
 62
     7
370
    30
100
AcDbCircle
 10
40.4339109066
 20
16.8642735253
 30
0.0
 40
0.09375
  0
CIRCLE
  5
106
330
1F
100
AcDbEntity
  8
0
  6
Continuous
 62
     7
370
    30
100
AcDbCircle
 10
41.3549109066
 20
15.3332735253
 30
0.0
 40
0.09375
  0
CIRCLE
  5
107
330
1F
100
AcDbEntity
  8
0
  6
Continuous
 62
     7
370
    30
100
AcDbCircle
 10
41.3549109066
 20
20.3952735253
 30
0.0
 40
0.09375
  0
CIRCLE
  5
108
330
1F
100
AcDbEntity
  8
0
  6
Continuous
 62
     7
370
    30
100
AcDbCircle
 10
40.4339109066
 20
18.8642735253
 30
0.0
 40
0.09375
  0
CIRCLE
  5
109
330
1F
100
AcDbEntity
  8
0
  6
Continuous
 62
     7
370
    30
100
AcDbCircle
 10
38.9799109066
 20
20.3952735253
 30
0.0
 40
0.09375
  0
CIRCLE
  5
10A
330
1F
100
AcDbEntity
  8
0
  6
Continuous
 62
     7
370
    30
100
AcDbCircle
 10
5.2459109066
 20
17.8642735253
 30
0.0
 40
0.0470000000000015
  0
CIRCLE
  5
10B
330
1F
100
AcDbEntity
  8
0
  6
Continuous
 62
     7
370
    30
100
AcDbCircle
 10
5.2459109066
 20
9.8642735253
 30
0.0
 40
0.0469999999999988
  0
CIRCLE
  5
10C
330
1F
100
AcDbEntity
  8
0
  6
Continuous
 62
     7
370
    30
100
AcDbCircle
 10
5.2459109066
 20
25.8642735253
 30
0.0
 40
0.0469999999999988
  0
ARC
  5
10D
330
1F
100
AcDbEntity
  8
0
  6
Continuous
 62
     7
370
    30
100
AcDbCircle
 10
10.8174109066
 20
30.5552888816
 30
0.0
 40
0.4375000000000028
100
AcDbArc
 50
278.2793756981
 51
81.7206243019
  0
LINE
  5
10E
330
1F
100
AcDbEntity
  8
0
  6
Continuous
 62
     7
370
    30
100
AcDbLine
 10
10.8804106556
 20
30.9252285778
 30
0.0
 11
10.8804106556
 21
30.98822881
 31
0.0
  0
LINE
  5
10F
330
1F
100
AcDbEntity
  8
0
  6
Continuous
 62
     7
370
    30
100
AcDbLine
 10
10.7544107778
 20
30.9252285778
 30
0.0
 11
10.8804106556
 21
30.9252285778
 31
0.0
  0
LINE
  5
110
330
1F
100
AcDbEntity
  8
0
  6
Continuous
 62
     7
370
    30
100
AcDbLine
 10
10.7544107778
 20
30.98822881
 30
0.0
 11
10.7544107778
 21
30.9252285778
 31
0.0
  0
ARC
  5
111
330
1F
100
AcDbEntity
  8
0
  6
Continuous
 62
     7
370
    30
100
AcDbCircle
 10
10.8174109066
 20
30.5552888816
 30
0.0
 40
0.4375000000000031
100
AcDbArc
 50
98.2793756981
 51
261.7206243019
  0
LINE
  5
112
330
1F
100
AcDbEntity
  8
0
  6
Continuous
 62
     7
370
    30
100
AcDbLine
 10
10.7544107778
 20
30.1850773415
 30
0.0
 11
10.7544107778
 21
30.1223481461
 31
0.0
  0
LINE
  5
113
330
1F
100
AcDbEntity
  8
0
  6
Continuous
 62
     7
370
    30
100
AcDbLine
 10
10.8804106556
 20
30.1853483783
 30
0.0
 11
10.7544107778
 21
30.1850773415
 31
0.0
  0
LINE
  5
114
330
1F
100
AcDbEntity
  8
0
  6
Continuous
 62
     7
370
    30
100
AcDbLine
 10
10.8804106556
 20
30.1223481461
 30
0.0
 11
10.8804106556
 21
30.1853483783
 31
0.0
  0
ARC
  5
115
330
1F
100
AcDbEntity
  8
0
  6
Continuous
 62
     7
370
    30
100
AcDbCircle
 10
16.8174109066
 20
30.5552888816
 30
0.0
 40
0.4375000000000031
100
AcDbArc
 50
278.2793756981
 51
81.7206243019
  0
LINE
  5
116
330
1F
100
AcDbEntity
  8
0
  6
Continuous
 62
     7
370
    30
100
AcDbLine
 10
16.8804108764
 20
30.9252285778
 30
0.0
 11
16.8804108764
 21
30.98822881
 31
0.0
  0
LINE
  5
117
330
1F
100
AcDbEntity
  8
0
  6
Continuous
 62
     7
370
    30
100
AcDbLine
 10
16.754410852
 20
30.9252285778
 30
0.0
 11
16.8804108764
 21
30.9252285778
 31
0.0
  0
LINE
  5
118
330
1F
100
AcDbEntity
  8
0
  6
Continuous
 62
     7
370
    30
100
AcDbLine
 10
16.754410852
 20
30.98822881
 30
0.0
 11
16.754410852
 21
30.9252285778
 31
0.0
  0
ARC
  5
119
330
1F
100
AcDbEntity
  8
0
  6
Continuous
 62
     7
370
    30
100
AcDbCircle
 10
16.8174109066
 20
30.5552888816
 30
0.0
 40
0.4375000000000036
100
AcDbArc
 50
98.2793756981
 51
261.7206243019
  0
LINE
  5
11A
330
1F
100
AcDbEntity
  8
0
  6
Continuous
 62
     7
370
    30
100
AcDbLine
 10
16.754410852
 20
30.1850773415
 30
0.0
 11
16.754410852
 21
30.1223481461
 31
0.0
  0
LINE
  5
11B
330
1F
100
AcDbEntity
  8
0
  6
Continuous
 62
     7
370
    30
100
AcDbLine
 10
16.8804108764
 20
30.1853483783
 30
0.0
 11
16.754410852
 21
30.1850773415
 31
0.0
  0
LINE
  5
11C
330
1F
100
AcDbEntity
  8
0
  6
Continuous
 62
     7
370
    30
100
AcDbLine
 10
16.8804108764
 20
30.1223481461
 30
0.0
 11
16.8804108764
 21
30.1853483783
 31
0.0
  0
LINE
  5
11D
330
1F
100
AcDbEntity
  8
0
  6
Continuous
 62
     7
370
    30
100
AcDbLine
 10
4.8994265751
 20
33.6487889017
 30
0.0
 11
4.8323959894
 21
33.6487889017
 31
0.0
  0
LINE
  5
11E
330
1F
100
AcDbEntity
  8
0
  6
Continuous
 62
     7
370
    30
100
AcDbLine
 10
22.7124263178
 20
33.6487889017
 30
0.0
 11
22.8024263981
 21
33.6487889017
 31
0.0
  0
LINE
  5
11F
330
1F
100
AcDbEntity
  8
0
  6
Continuous
 62
     7
370
    30
100
AcDbLine
 10
22.8024263981
 20
33.6487889017
 30
0.0
 11
22.8024263981
 21
27.353304081
 31
0.0
  0
LINE
  5
120
330
1F
100
AcDbEntity
  8
0
  6
Continuous
 62
     7
370
    30
100
AcDbLine
 10
22.8024263981
 20
27.353304081
 30
0.0
 11
22.7883955469
 21
27.3392735231
 31
0.0
  0
LINE
  5
121
330
1F
100
AcDbEntity
  8
0
  6
Continuous
 62
     7
370
    30
100
AcDbLine
 10
4.8464265474
 20
27.3392735231
 30
0.0
 11
22.7883955469
 21
27.3392735231
 31
0.0
  0
LINE
  5
122
330
1F
100
AcDbEntity
  8
0
  6
Continuous
 62
     7
370
    30
100
AcDbLine
 10
4.8323959894
 20
27.353304081
 30
0.0
 11
4.8464265474
 21
27.3392735231
 31
0.0
  0
LINE
  5
123
330
1F
100
AcDbEntity
  8
0
  6
Continuous
 62
     7
370
    30
100
AcDbLine
 10
4.8323959894
 20
27.353304081
 30
0.0
 11
4.8323959894
 21
33.6487889017
 31
0.0
  0
SPLINE
  5
124
330
1F
100
AcDbEntity
  8
0
  6
Continuous
 62
     7
370
    30
100
AcDbSpline
210
0.0
220
0.0
230
1.0
 70
     8
 71
     3
 72
    11
 73
     7
 74
     0
 42
0.00000001
 43
0.00000001
 40
0.0
 40
0.0
 40
0.0
 40
0.0
 40
0.249991299670843
 40
0.4999985044017432
 40
0.7499879759911385
 40
1.0
 40
1.0
 40
1.0
 40
1.0
 10
4.7973958604241
 20
27.35827309027088
 30
0.0
 10
4.797921598125889
 20
27.35785939442996
 30
0.0
 10
4.798973106978182
 20
27.35703197642778
 30
0.0
 10
4.807068016104657
 20
27.35578915670262
 30
0.0
 10
4.818636652883819
 20
27.35454657251228
 30
0.0
 10
4.827809406005142
 20
27.35371825729548
 30
0.0
 10
4.832395989432958
 20
27.35330408100663
 30
0.0
  0
LINE
  5
125
330
1F
100
AcDbEntity
  8
0
  6
Continuous
 62
     7
370
    30
100
AcDbLine
 10
4.7973958604
 20
27.3582730903
 30
0.0
 11
4.7973958604
 21
33.6487889017
 31
0.0
  0
LINE
  5
126
330
1F
100
AcDbEntity
  8
0
  6
Continuous
 62
     7
370
    30
100
AcDbLine
 10
4.8323959894
 20
33.6487889017
 30
0.0
 11
4.7973958604
 21
33.6487889017
 31
0.0
  0
LINE
  5
127
330
1F
100
AcDbEntity
  8
0
  6
Continuous
 62
     7
370
    30
100
AcDbLine
 10
22.8024263981
 20
33.6487889017
 30
0.0
 11
22.8374262338
 21
33.6487889017
 31
0.0
  0
LINE
  5
128
330
1F
100
AcDbEntity
  8
0
  6
Continuous
 62
     7
370
    30
100
AcDbLine
 10
22.8374262338
 20
33.6487889017
 30
0.0
 11
22.8374262338
 21
27.3582730903
 31
0.0
  0
SPLINE
  5
129
330
1F
100
AcDbEntity
  8
0
  6
Continuous
 62
     7
370
    30
100
AcDbSpline
210
0.0
220
0.0
230
1.0
 70
     8
 71
     3
 72
    11
 73
     7
 74
     0
 42
0.00000001
 43
0.00000001
 40
0.0
 40
0.0
 40
0.0
 40
0.0
 40
0.2499975598288214
 40
0.4999990312841821
 40
0.7500005027395428
 40
1.0
 40
1.0
 40
1.0
 40
1.0
 10
22.83742623378714
 20
27.35827309027087
 30
0.0
 10
22.83690006708605
 20
27.35785940257798
 30
0.0
 10
22.83584772545111
 20
27.35703202071936
 30
0.0
 10
22.8277541952462
 20
27.35578908917588
 30
0.0
 10
22.8161851150709
 20
27.35454665315685
 30
0.0
 10
22.80701262502363
 20
27.35371827063312
 30
0.0
 10
22.80242639810823
 20
27.35330408100663
 30
0.0
  0
LINE
  5
12A
330
1F
100
AcDbEntity
  8
0
  6
Continuous
 62
     7
370
    30
100
AcDbLine
 10
4.8464265474
 20
27.3042733941
 30
0.0
 11
22.7883955469
 21
27.3042733941
 31
0.0
  0
SPLINE
  5
12B
330
1F
100
AcDbEntity
  8
0
  6
Continuous
 62
     7
370
    30
100
AcDbSpline
210
0.0
220
0.0
230
1.0
 70
     8
 71
     3
 72
    11
 73
     7
 74
     0
 42
0.00000001
 43
0.00000001
 40
0.0
 40
0.0
 40
0.0
 40
0.0
 40
0.2500053719228884
 40
0.4999962532145248
 40
0.7500013387049476
 40
0.9999999999999999
 40
0.9999999999999999
 40
0.9999999999999999
 40
0.9999999999999999
 10
4.84891046532299
 20
27.31452468898947
 30
0.0
 10
4.848703539161956
 20
27.31299545987701
 30
0.0
 10
4.848289698833595
 20
27.30993709028817
 30
0.0
 10
4.847669486474229
 20
27.30675745053563
 30
0.0
 10
4.84704684818223
 20
27.30466085700704
 30
0.0
 10
4.846633312523502
 20
27.30440254728272
 30
0.0
 10
4.846426547350753
 20
27.30427339407998
 30
0.0
  0
SPLINE
  5
12C
330
1F
100
AcDbEntity
  8
0
  6
Continuous
 62
     7
370
    30
100
AcDbSpline
210
0.0
220
0.0
230
1.0
 70
     8
 71
     3
 72
    11
 73
     7
 74
     0
 42
0.00000001
 43
0.00000001
 40
0.0
 40
0.0
 40
0.0
 40
0.0
 40
0.2500186323592612
 40
0.4999849607076521
 40
0.750011716480588
 40
1.0
 40
1.0
 40
1.0
 40
1.0
 10
4.846426547350756
 20
27.33927352308883
 30
0.0
 10
4.846633294266992
 20
27.33698162630617
 30
0.0
 10
4.84704674484792
 20
27.33239831220668
 30
0.0
 10
4.847669621112003
 20
27.32580479618571
 30
0.0
 10
4.848289603924374
 20
27.31966015282493
 30
0.0
 10
4.848703522139375
 20
27.31623642245819
 30
0.0
 10
4.84891046532299
 20
27.31452468898947
 30
0.0
  0
SPLINE
  5
12D
330
1F
100
AcDbEntity
  8
0
  6
Continuous
 62
     7
370
    30
100
AcDbSpline
210
0.0
220
0.0
230
1.0
 70
     8
 71
     3
 72
    11
 73
     7
 74
     0
 42
0.00000001
 43
0.00000001
 40
0.0
 40
0.0
 40
0.0
 40
0.0
 40
0.2500058519469581
 40
0.4999981730784785
 40
0.749999898939696
 40
1.0
 40
1.0
 40
1.0
 40
1.0
 10
22.78591104222837
 20
27.31452468898947
 30
0.0
 10
22.7861179968887
 20
27.31299545789564
 30
0.0
 10
22.78653189500857
 20
27.30993707847302
 30
0.0
 10
22.78715343741048
 20
27.30675748335117
 30
0.0
 10
22.78777416457988
 20
27.30466083824828
 30
0.0
 10
22.78818841988234
 20
27.30440254185629
 30
0.0
 10
22.78839554686049
 20
27.30427339407997
 30
0.0
  0
SPLINE
  5
12E
330
1F
100
AcDbEntity
  8
0
  6
Continuous
 62
     7
370
    30
100
AcDbSpline
210
0.0
220
0.0
230
1.0
 70
     8
 71
     3
 72
    11
 73
     7
 74
     0
 42
0.00000001
 43
0.00000001
 40
0.0
 40
0.0
 40
0.0
 40
0.0
 40
0.2500200721104113
 40
0.4999830407179361
 40
0.7500112361641176
 40
1.0
 40
1.0
 40
1.0
 40
1.0
 10
22.78839554686049
 20
27.33927352308883
 30
0.0
 10
22.78818843810544
 20
27.33698164047874
 30
0.0
 10
22.78777426789809
 20
27.33239839871464
 30
0.0
 10
22.78715330280188
 20
27.32580470963505
 30
0.0
 10
22.78653198996439
 20
27.31966017725541
 30
0.0
 10
22.78611801392492
 20
27.31623642841188
 30
0.0
 10
22.78591104222837
 20
27.31452468898947
 30
0.0
  0
LINE
  5
12F
330
1F
100
AcDbEntity
  8
0
  6
Continuous
 62
     7
370
    30
100
AcDbLine
 10
4.8464265474
 20
27.3042733941
 30
0.0
 11
4.8464265474
 21
27.3382738546
 31
0.0
  0
LINE
  5
130
330
1F
100
AcDbEntity
  8
0
  6
Continuous
 62
     7
370
    30
100
AcDbLine
 10
22.7883955469
 20
27.3042733941
 30
0.0
 11
22.7883955469
 21
27.3382738546
 31
0.0
  0
LINE
  5
131
330
1F
100
AcDbEntity
  8
0
  6
Continuous
 62
     7
370
    30
100
AcDbLine
 10
22.7883955469
 20
27.3042733941
 30
0.0
 11
22.8024263981
 21
27.3042733941
 31
0.0
  0
LINE
  5
132
330
1F
100
AcDbEntity
  8
0
  6
Continuous
 62
     7
370
    30
100
AcDbLine
 10
22.7883955469
 20
27.3382738546
 30
0.0
 11
22.8024263981
 21
27.3382738546
 31
0.0
  0
LINE
  5
133
330
1F
100
AcDbEntity
  8
0
  6
Continuous
 62
     7
370
    30
100
AcDbLine
 10
22.8024263981
 20
27.3382738546
 30
0.0
 11
22.8024263981
 21
27.3042733941
 31
0.0
  0
LINE
  5
134
330
1F
100
AcDbEntity
  8
0
  6
Continuous
 62
     7
370
    30
100
AcDbLine
 10
4.8464265474
 20
27.3042733941
 30
0.0
 11
4.8323959894
 21
27.3042733941
 31
0.0
  0
LINE
  5
135
330
1F
100
AcDbEntity
  8
0
  6
Continuous
 62
     7
370
    30
100
AcDbLine
 10
4.8323959894
 20
27.3382738546
 30
0.0
 11
4.8323959894
 21
27.3042733941
 31
0.0
  0
LINE
  5
136
330
1F
100
AcDbEntity
  8
0
  6
Continuous
 62
     7
370
    30
100
AcDbLine
 10
4.8464265474
 20
27.3382738546
 30
0.0
 11
4.8323959894
 21
27.3382738546
 31
0.0
  0
SPLINE
  5
137
330
1F
100
AcDbEntity
  8
0
  6
Continuous
 62
     7
370
    30
100
AcDbSpline
210
0.0
220
0.0
230
1.0
 70
     8
 71
     3
 72
    11
 73
     7
 74
     0
 42
0.00000001
 43
0.00000001
 40
0.0
 40
0.0
 40
0.0
 40
0.0
 40
0.2500120293520023
 40
0.4999975083707902
 40
0.7500130200599374
 40
1.0
 40
1.0
 40
1.0
 40
1.0
 10
4.832395989432958
 20
27.30427339407997
 30
0.0
 10
4.82780943157327
 20
27.30479960071037
 30
0.0
 10
4.818636802929015
 20
27.30585195809002
 30
0.0
 10
4.807067698765165
 20
27.31394591901509
 30
0.0
 10
4.79897329559962
 20
27.32551452890917
 30
0.0
 10
4.797921652145888
 20
27.3346873661728
 30
0.0
 10
4.797395860424102
 20
27.33927352308883
 30
0.0
  0
LINE
  5
138
330
1F
100
AcDbEntity
  8
0
  6
Continuous
 62
     7
370
    30
100
AcDbLine
 10
4.8313951477
 20
27.3392735231
 30
0.0
 11
4.7973958604
 21
27.3392735231
 31
0.0
  0
SPLINE
  5
139
330
1F
100
AcDbEntity
  8
0
  6
Continuous
 62
     7
370
    30
100
AcDbSpline
210
0.0
220
0.0
230
1.0
 70
     8
 71
     3
 72
     9
 73
     5
 74
     0
 42
0.00000001
 43
0.00000001
 40
0.0
 40
0.0
 40
0.0
 40
0.0
 40
0.4999603423983104
 40
1.0
 40
1.0
 40
1.0
 40
1.0
 10
4.832395989432956
 20
27.33827385463709
 30
0.0
 10
4.832125635861138
 20
27.33833663934185
 30
0.0
 10
4.831584885827807
 20
27.33846221871174
 30
0.0
 10
4.831458397061052
 20
27.33900307399712
 30
0.0
 10
4.831395147661435
 20
27.33927352308883
 30
0.0
  0
LINE
  5
13A
330
1F
100
AcDbEntity
  8
0
  6
Continuous
 62
     7
370
    30
100
AcDbLine
 10
22.8034263599
 20
27.3392735231
 30
0.0
 11
22.8374262338
 21
27.3392735231
 31
0.0
  0
SPLINE
  5
13B
330
1F
100
AcDbEntity
  8
0
  6
Continuous
 62
     7
370
    30
100
AcDbSpline
210
0.0
220
0.0
230
1.0
 70
     8
 71
     3
 72
     9
 73
     5
 74
     0
 42
0.00000001
 43
0.00000001
 40
0.0
 40
0.0
 40
0.0
 40
0.0
 40
0.4999481747718937
 40
1.0
 40
1.0
 40
1.0
 40
1.0
 10
22.80242639810823
 20
27.33827385463708
 30
0.0
 10
22.8026965320294
 20
27.3383366430527
 30
0.0
 10
22.80323685587654
 20
27.33846223290137
 30
0.0
 10
22.80336318752068
 20
27.33900307434019
 30
0.0
 10
22.80342635988993
 20
27.33927352308883
 30
0.0
  0
SPLINE
  5
13C
330
1F
100
AcDbEntity
  8
0
  6
Continuous
 62
     7
370
    30
100
AcDbSpline
210
0.0
220
0.0
230
1.0
 70
     8
 71
     3
 72
    11
 73
     7
 74
     0
 42
0.00000001
 43
0.00000001
 40
0.0
 40
0.0
 40
0.0
 40
0.0
 40
0.249999502536392
 40
0.4999969813370184
 40
0.7500067600525678
 40
1.0
 40
1.0
 40
1.0
 40
1.0
 10
22.80242639810823
 20
27.30427339407997
 30
0.0
 10
22.80701259945861
 20
27.30479970010833
 30
0.0
 10
22.81618496503424
 20
27.30585230790463
 30
0.0
 10
22.82775451258724
 20
27.31394543547256
 30
0.0
 10
22.83584753681953
 20
27.32551493579778
 30
0.0
 10
22.83690001306898
 20
27.33468742845902
 30
0.0
 10
22.83742623378714
 20
27.33927352308883
 30
0.0
  0
LINE
  5
13D
330
1F
100
AcDbEntity
  8
0
  6
Continuous
 62
     7
370
    30
100
AcDbLine
 10
4.7973958604
 20
27.3392735231
 30
0.0
 11
4.7973958604
 21
27.3582730903
 31
0.0
  0
LINE
  5
13E
330
1F
100
AcDbEntity
  8
0
  6
Continuous
 62
     7
370
    30
100
AcDbLine
 10
4.8313951477
 20
27.3392735231
 30
0.0
 11
4.8313951477
 21
27.3533967733
 31
0.0
  0
LINE
  5
13F
330
1F
100
AcDbEntity
  8
0
  6
Continuous
 62
     7
370
    30
100
AcDbLine
 10
22.8374262338
 20
27.3392735231
 30
0.0
 11
22.8374262338
 21
27.3582730903
 31
0.0
  0
LINE
  5
140
330
1F
100
AcDbEntity
  8
0
  6
Continuous
 62
     7
370
    30
100
AcDbLine
 10
22.8034263599
 20
27.3392735231
 30
0.0
 11
22.8034263599
 21
27.3533967733
 31
0.0
  0
LINE
  5
141
330
1F
100
AcDbEntity
  8
0
  6
Continuous
 62
     7
370
    30
100
AcDbLine
 10
10.7544107778
 20
30.1850773415
 30
0.0
 11
10.7544107778
 21
30.1853483783
 31
0.0
  0
LINE
  5
142
330
1F
100
AcDbEntity
  8
0
  6
Continuous
 62
     7
370
    30
100
AcDbLine
 10
10.7544107778
 20
30.1853483783
 30
0.0
 11
10.8803431897
 21
30.1853483783
 31
0.0
  0
LINE
  5
143
330
1F
100
AcDbEntity
  8
0
  6
Continuous
 62
     7
370
    30
100
AcDbLine
 10
16.754410852
 20
30.1850773415
 30
0.0
 11
16.754410852
 21
30.1853483783
 31
0.0
  0
LINE
  5
144
330
1F
100
AcDbEntity
  8
0
  6
Continuous
 62
     7
370
    30
100
AcDbLine
 10
16.754410852
 20
30.1853483783
 30
0.0
 11
16.8803431172
 21
30.1853483783
 31
0.0
  0
ARC
  5
145
330
1F
100
AcDbEntity
  8
0
  6
Continuous
 62
     7
370
    30
100
AcDbCircle
 10
16.8174109066
 20
5.173258169
 30
0.0
 40
0.4375000000000027
100
AcDbArc
 50
278.2793756981
 51
81.7206243019
  0
LINE
  5
146
330
1F
100
AcDbEntity
  8
0
  6
Continuous
 62
     7
370
    30
100
AcDbLine
 10
16.8804108764
 20
5.5431983799
 30
0.0
 11
16.8804108764
 21
5.6061986121
 31
0.0
  0
LINE
  5
147
330
1F
100
AcDbEntity
  8
0
  6
Continuous
 62
     7
370
    30
100
AcDbLine
 10
16.754410852
 20
5.5431983799
 30
0.0
 11
16.8804108764
 21
5.5431983799
 31
0.0
  0
LINE
  5
148
330
1F
100
AcDbEntity
  8
0
  6
Continuous
 62
     7
370
    30
100
AcDbLine
 10
16.754410852
 20
5.6061986121
 30
0.0
 11
16.754410852
 21
5.5431983799
 31
0.0
  0
ARC
  5
149
330
1F
100
AcDbEntity
  8
0
  6
Continuous
 62
     7
370
    30
100
AcDbCircle
 10
16.8174109066
 20
5.173258169
 30
0.0
 40
0.4375000000000017
100
AcDbArc
 50
98.2793756981
 51
261.7206243019
  0
LINE
  5
14A
330
1F
100
AcDbEntity
  8
0
  6
Continuous
 62
     7
370
    30
100
AcDbLine
 10
16.754410852
 20
4.8030471435
 30
0.0
 11
16.754410852
 21
4.7403179482
 31
0.0
  0
LINE
  5
14B
330
1F
100
AcDbEntity
  8
0
  6
Continuous
 62
     7
370
    30
100
AcDbLine
 10
16.8804108764
 20
4.8033181804
 30
0.0
 11
16.754410852
 21
4.8030471435
 31
0.0
  0
LINE
  5
14C
330
1F
100
AcDbEntity
  8
0
  6
Continuous
 62
     7
370
    30
100
AcDbLine
 10
16.8804108764
 20
4.7403179482
 30
0.0
 11
16.8804108764
 21
4.8033181804
 31
0.0
  0
ARC
  5
14D
330
1F
100
AcDbEntity
  8
0
  6
Continuous
 62
     7
370
    30
100
AcDbCircle
 10
10.8174109066
 20
5.173258169
 30
0.0
 40
0.4375000000000022
100
AcDbArc
 50
278.2793756981
 51
81.7206243019
  0
LINE
  5
14E
330
1F
100
AcDbEntity
  8
0
  6
Continuous
 62
     7
370
    30
100
AcDbLine
 10
10.8804106556
 20
5.5431983799
 30
0.0
 11
10.8804106556
 21
5.6061986121
 31
0.0
  0
LINE
  5
14F
330
1F
100
AcDbEntity
  8
0
  6
Continuous
 62
     7
370
    30
100
AcDbLine
 10
10.7544107778
 20
5.5431983799
 30
0.0
 11
10.8804106556
 21
5.5431983799
 31
0.0
  0
LINE
  5
150
330
1F
100
AcDbEntity
  8
0
  6
Continuous
 62
     7
370
    30
100
AcDbLine
 10
10.7544107778
 20
5.6061986121
 30
0.0
 11
10.7544107778
 21
5.5431983799
 31
0.0
  0
ARC
  5
151
330
1F
100
AcDbEntity
  8
0
  6
Continuous
 62
     7
370
    30
100
AcDbCircle
 10
10.8174109066
 20
5.173258169
 30
0.0
 40
0.4375000000000024
100
AcDbArc
 50
98.2793756981
 51
261.7206243019
  0
LINE
  5
152
330
1F
100
AcDbEntity
  8
0
  6
Continuous
 62
     7
370
    30
100
AcDbLine
 10
10.7544107778
 20
4.8030471435
 30
0.0
 11
10.7544107778
 21
4.7403179482
 31
0.0
  0
LINE
  5
153
330
1F
100
AcDbEntity
  8
0
  6
Continuous
 62
     7
370
    30
100
AcDbLine
 10
10.8804106556
 20
4.8033181804
 30
0.0
 11
10.7544107778
 21
4.8030471435
 31
0.0
  0
LINE
  5
154
330
1F
100
AcDbEntity
  8
0
  6
Continuous
 62
     7
370
    30
100
AcDbLine
 10
10.8804106556
 20
4.7403179482
 30
0.0
 11
10.8804106556
 21
4.8033181804
 31
0.0
  0
LINE
  5
155
330
1F
100
AcDbEntity
  8
0
  6
Continuous
 62
     7
370
    30
100
AcDbLine
 10
4.8323959894
 20
8.3752426772
 30
0.0
 11
4.8464265474
 21
8.3892732351
 31
0.0
  0
LINE
  5
156
330
1F
100
AcDbEntity
  8
0
  6
Continuous
 62
     7
370
    30
100
AcDbLine
 10
4.8464265474
 20
8.3892732351
 30
0.0
 11
22.7883955469
 21
8.3892732351
 31
0.0
  0
LINE
  5
157
330
1F
100
AcDbEntity
  8
0
  6
Continuous
 62
     7
370
    30
100
AcDbLine
 10
22.8024263981
 20
8.3752426772
 30
0.0
 11
22.8024263981
 21
2.0797578565
 31
0.0
  0
LINE
  5
158
330
1F
100
AcDbEntity
  8
0
  6
Continuous
 62
     7
370
    30
100
AcDbLine
 10
22.7124263178
 20
2.0797578565
 30
0.0
 11
22.8024263981
 21
2.0797578565
 31
0.0
  0
LINE
  5
159
330
1F
100
AcDbEntity
  8
0
  6
Continuous
 62
     7
370
    30
100
AcDbLine
 10
4.8994265751
 20
2.0797578565
 30
0.0
 11
4.8323959894
 21
2.0797578565
 31
0.0
  0
LINE
  5
15A
330
1F
100
AcDbEntity
  8
0
  6
Continuous
 62
     7
370
    30
100
AcDbLine
 10
4.8323959894
 20
2.0797578565
 30
0.0
 11
4.8323959894
 21
8.3752426772
 31
0.0
  0
LINE
  5
15B
330
1F
100
AcDbEntity
  8
0
  6
Continuous
 62
     7
370
    30
100
AcDbLine
 10
22.8024263981
 20
8.3752426772
 30
0.0
 11
22.7883955469
 21
8.3892732351
 31
0.0
  0
SPLINE
  5
15C
330
1F
100
AcDbEntity
  8
0
  6
Continuous
 62
     7
370
    30
100
AcDbSpline
210
0.0
220
0.0
230
1.0
 70
     8
 71
     3
 72
    11
 73
     7
 74
     0
 42
0.00000001
 43
0.00000001
 40
0.0
 40
0.0
 40
0.0
 40
0.0
 40
0.2500182349621031
 40
0.5000044547972953
 40
0.7500121138295074
 40
1.0
 40
1.0
 40
1.0
 40
1.0
 10
4.846426547350756
 20
8.389273235109222
 30
0.0
 10
4.846633301360659
 20
8.391565120588304
 30
0.0
 10
4.847046782905364
 20
8.396148598067848
 30
0.0
 10
4.847669554207198
 20
8.402742286159402
 30
0.0
 10
4.848289639662333
 20
8.40888669056887
 30
0.0
 10
4.848703528891998
 20
8.412310321459064
 30
0.0
 10
4.848910465322988
 20
8.414022069208578
 30
0.0
  0
SPLINE
  5
15D
330
1F
100
AcDbEntity
  8
0
  6
Continuous
 62
     7
370
    30
100
AcDbSpline
210
0.0
220
0.0
230
1.0
 70
     8
 71
     3
 72
    11
 73
     7
 74
     0
 42
0.00000001
 43
0.00000001
 40
0.0
 40
0.0
 40
0.0
 40
0.0
 40
0.2500044123742187
 40
0.5000043279194067
 40
0.7500022982278614
 40
1.0
 40
1.0
 40
1.0
 40
1.0
 10
4.84891046532299
 20
8.41402206920858
 30
0.0
 10
4.848703535899534
 20
8.4155512285692
 30
0.0
 10
4.848289680774665
 20
8.418609519785452
 30
0.0
 10
4.847669514187522
 20
8.42179019391884
 30
0.0
 10
4.847046835679403
 20
8.423885686181087
 30
0.0
 10
4.84663331005294
 20
8.424144138185351
 30
0.0
 10
4.846426547350756
 20
8.42427336411808
 30
0.0
  0
LINE
  5
15E
330
1F
100
AcDbEntity
  8
0
  6
Continuous
 62
     7
370
    30
100
AcDbLine
 10
4.8464265474
 20
8.4242733641
 30
0.0
 11
22.7883955469
 21
8.4242733641
 31
0.0
  0
SPLINE
  5
15F
330
1F
100
AcDbEntity
  8
0
  6
Continuous
 62
     7
370
    30
100
AcDbSpline
210
0.0
220
0.0
230
1.0
 70
     8
 71
     3
 72
    11
 73
     7
 74
     0
 42
0.00000001
 43
0.00000001
 40
0.0
 40
0.0
 40
0.0
 40
0.0
 40
0.2500048924351949
 40
0.5000062477576216
 40
0.7500008584293872
 40
0.9999999999999999
 40
0.9999999999999999
 40
0.9999999999999999
 40
0.9999999999999999
 10
22.78591104222837
 20
8.41402206920858
 30
0.0
 10
22.78611800015308
 20
8.41555123055024
 30
0.0
 10
22.78653191307441
 20
8.418609531598714
 30
0.0
 10
22.7871534097065
 20
8.421790161103642
 30
0.0
 10
22.78777417708491
 20
8.423885704936792
 30
0.0
 10
22.78818842235068
 20
8.424144143610334
 30
0.0
 10
22.78839554686049
 20
8.424273364118077
 30
0.0
  0
SPLINE
  5
160
330
1F
100
AcDbEntity
  8
0
  6
Continuous
 62
     7
370
    30
100
AcDbSpline
210
0.0
220
0.0
230
1.0
 70
     8
 71
     3
 72
    11
 73
     7
 74
     0
 42
0.00000001
 43
0.00000001
 40
0.0
 40
0.0
 40
0.0
 40
0.0
 40
0.2500196746173895
 40
0.5000025348184313
 40
0.7500116336073642
 40
1.0
 40
1.0
 40
1.0
 40
1.0
 10
22.78839554686049
 20
8.389273235109222
 30
0.0
 10
22.78818843102124
 20
8.391565106416989
 30
0.0
 10
22.78777422983972
 20
8.396148511563462
 30
0.0
 10
22.78715336968722
 20
8.402742372705704
 30
0.0
 10
22.78653195421792
 20
8.408886666136183
 30
0.0
 10
22.78611800717011
 20
8.41231031550499
 30
0.0
 10
22.78591104222837
 20
8.41402206920858
 30
0.0
  0
SPLINE
  5
161
330
1F
100
AcDbEntity
  8
0
  6
Continuous
 62
     7
370
    30
100
AcDbSpline
210
0.0
220
0.0
230
1.0
 70
     8
 71
     3
 72
    11
 73
     7
 74
     0
 42
0.00000001
 43
0.00000001
 40
0.0
 40
0.0
 40
0.0
 40
0.0
 40
0.2499985284311798
 40
0.5
 40
0.7500014715688202
 40
1.0
 40
1.0
 40
1.0
 40
1.0
 10
22.83742623378714
 20
8.370273667927178
 30
0.0
 10
22.8369000703866
 20
8.370687606586825
 30
0.0
 10
22.83584773739118
 20
8.371515488779266
 30
0.0
 10
22.82775419119979
 20
8.372758172559303
 30
0.0
 10
22.81618514471401
 20
8.374000856339334
 30
0.0
 10
22.80701262897951
 20
8.374828738531775
 30
0.0
 10
22.80242639810823
 20
8.375242677191425
 30
0.0
  0
LINE
  5
162
330
1F
100
AcDbEntity
  8
0
  6
Continuous
 62
     7
370
    30
100
AcDbLine
 10
22.8374262338
 20
8.3702736679
 30
0.0
 11
22.8374262338
 21
2.0797578565
 31
0.0
  0
LINE
  5
163
330
1F
100
AcDbEntity
  8
0
  6
Continuous
 62
     7
370
    30
100
AcDbLine
 10
22.8024263981
 20
2.0797578565
 30
0.0
 11
22.8374262338
 21
2.0797578565
 31
0.0
  0
LINE
  5
164
330
1F
100
AcDbEntity
  8
0
  6
Continuous
 62
     7
370
    30
100
AcDbLine
 10
4.8323959894
 20
2.0797578565
 30
0.0
 11
4.7973958604
 21
2.0797578565
 31
0.0
  0
LINE
  5
165
330
1F
100
AcDbEntity
  8
0
  6
Continuous
 62
     7
370
    30
100
AcDbLine
 10
4.7973958604
 20
2.0797578565
 30
0.0
 11
4.7973958604
 21
8.3702736679
 31
0.0
  0
SPLINE
  5
166
330
1F
100
AcDbEntity
  8
0
  6
Continuous
 62
     7
370
    30
100
AcDbSpline
210
0.0
220
0.0
230
1.0
 70
     8
 71
     3
 72
    11
 73
     7
 74
     0
 42
0.00000001
 43
0.00000001
 40
0.0
 40
0.0
 40
0.0
 40
0.0
 40
0.2499922682548928
 40
0.4999994730810519
 40
0.7499889447656994
 40
1.0
 40
1.0
 40
1.0
 40
1.0
 10
4.797395860424102
 20
8.370273667927178
 30
0.0
 10
4.797921594824859
 20
8.370687614733452
 30
0.0
 10
4.798973095038016
 20
8.371515533078545
 30
0.0
 10
4.807068020150168
 20
8.372758105035794
 30
0.0
 10
4.818636623244822
 20
8.374000936967525
 30
0.0
 10
4.827809402049636
 20
8.374828751872014
 30
0.0
 10
4.832395989432958
 20
8.375242677191425
 30
0.0
  0
LINE
  5
167
330
1F
100
AcDbEntity
  8
0
  6
Continuous
 62
     7
370
    30
100
AcDbLine
 10
22.7883955469
 20
8.3902734902
 30
0.0
 11
22.7883955469
 21
8.4242733641
 31
0.0
  0
LINE
  5
168
330
1F
100
AcDbEntity
  8
0
  6
Continuous
 62
     7
370
    30
100
AcDbLine
 10
4.8464265474
 20
8.3902734902
 30
0.0
 11
4.8464265474
 21
8.4242733641
 31
0.0
  0
LINE
  5
169
330
1F
100
AcDbEntity
  8
0
  6
Continuous
 62
     7
370
    30
100
AcDbLine
 10
22.7883955469
 20
8.4242733641
 30
0.0
 11
22.8024263981
 21
8.4242733641
 31
0.0
  0
LINE
  5
16A
330
1F
100
AcDbEntity
  8
0
  6
Continuous
 62
     7
370
    30
100
AcDbLine
 10
22.8024263981
 20
8.3902734902
 30
0.0
 11
22.8024263981
 21
8.4242733641
 31
0.0
  0
LINE
  5
16B
330
1F
100
AcDbEntity
  8
0
  6
Continuous
 62
     7
370
    30
100
AcDbLine
 10
22.7883955469
 20
8.3902734902
 30
0.0
 11
22.8024263981
 21
8.3902734902
 31
0.0
  0
LINE
  5
16C
330
1F
100
AcDbEntity
  8
0
  6
Continuous
 62
     7
370
    30
100
AcDbLine
 10
4.8323959894
 20
8.3902734902
 30
0.0
 11
4.8323959894
 21
8.4242733641
 31
0.0
  0
LINE
  5
16D
330
1F
100
AcDbEntity
  8
0
  6
Continuous
 62
     7
370
    30
100
AcDbLine
 10
4.8464265474
 20
8.3902734902
 30
0.0
 11
4.8323959894
 21
8.3902734902
 31
0.0
  0
LINE
  5
16E
330
1F
100
AcDbEntity
  8
0
  6
Continuous
 62
     7
370
    30
100
AcDbLine
 10
4.8464265474
 20
8.4242733641
 30
0.0
 11
4.8323959894
 21
8.4242733641
 31
0.0
  0
SPLINE
  5
16F
330
1F
100
AcDbEntity
  8
0
  6
Continuous
 62
     7
370
    30
100
AcDbSpline
210
0.0
220
0.0
230
1.0
 70
     8
 71
     3
 72
     9
 73
     5
 74
     0
 42
0.00000001
 43
0.00000001
 40
0.0
 40
0.0
 40
0.0
 40
0.0
 40
0.499966688460118
 40
1.0
 40
1.0
 40
1.0
 40
1.0
 10
4.832395989432958
 20
8.390273490220856
 30
0.0
 10
4.83212563604339
 20
8.39021046301324
 30
0.0
 10
4.831584893238293
 20
8.390084400199308
 30
0.0
 10
4.831458398996199
 20
8.389543635481722
 30
0.0
 10
4.831395147661435
 20
8.389273235109222
 30
0.0
  0
LINE
  5
170
330
1F
100
AcDbEntity
  8
0
  6
Continuous
 62
     7
370
    30
100
AcDbLine
 10
4.8313951477
 20
8.3892732351
 30
0.0
 11
4.7973958604
 21
8.3892732351
 31
0.0
  0
SPLINE
  5
171
330
1F
100
AcDbEntity
  8
0
  6
Continuous
 62
     7
370
    30
100
AcDbSpline
210
0.0
220
0.0
230
1.0
 70
     8
 71
     3
 72
    11
 73
     7
 74
     0
 42
0.00000001
 43
0.00000001
 40
0.0
 40
0.0
 40
0.0
 40
0.0
 40
0.250008593669652
 40
0.4999986329153223
 40
0.7500039307586676
 40
0.9999999999999999
 40
0.9999999999999999
 40
0.9999999999999999
 40
0.9999999999999999
 10
4.832395989432958
 20
8.42427336411808
 30
0.0
 10
4.827809387811923
 20
8.423747444990703
 30
0.0
 10
4.81863652496515
 20
8.422695645767114
 30
0.0
 10
4.807068093417381
 20
8.414600775011875
 30
0.0
 10
4.798973018988342
 20
8.403032611897604
 30
0.0
 10
4.797921573476619
 20
8.393859637603018
 30
0.0
 10
4.797395860424102
 20
8.389273235109222
 30
0.0
  0
SPLINE
  5
172
330
1F
100
AcDbEntity
  8
0
  6
Continuous
 62
     7
370
    30
100
AcDbSpline
210
0.0
220
0.0
230
1.0
 70
     8
 71
     3
 72
    11
 73
     7
 74
     0
 42
0.00000001
 43
0.00000001
 40
0.0
 40
0.0
 40
0.0
 40
0.0
 40
0.2499960669447637
 40
0.4999981059509474
 40
0.7499976706051016
 40
0.9999999999999999
 40
0.9999999999999999
 40
0.9999999999999999
 40
0.9999999999999999
 10
22.80242639810823
 20
8.42427336411808
 30
0.0
 10
22.80701264321588
 20
8.423747345586
 30
0.0
 10
22.81618524299024
 20
8.42269529595598
 30
0.0
 10
22.82775411793735
 20
8.41460125856195
 30
0.0
 10
22.83584781343928
 20
8.403032204998603
 30
0.0
 10
22.83690009173168
 20
8.393859575312247
 30
0.0
 10
22.83742623378714
 20
8.389273235109222
 30
0.0
  0
LINE
  5
173
330
1F
100
AcDbEntity
  8
0
  6
Continuous
 62
     7
370
    30
100
AcDbLine
 10
22.8034263599
 20
8.3892732351
 30
0.0
 11
22.8374262338
 21
8.3892732351
 31
0.0
  0
SPLINE
  5
174
330
1F
100
AcDbEntity
  8
0
  6
Continuous
 62
     7
370
    30
100
AcDbSpline
210
0.0
220
0.0
230
1.0
 70
     8
 71
     3
 72
     9
 73
     5
 74
     0
 42
0.00000001
 43
0.00000001
 40
0.0
 40
0.0
 40
0.0
 40
0.0
 40
0.4999545216128841
 40
1.0
 40
1.0
 40
1.0
 40
1.0
 10
22.80242639810823
 20
8.390273490220856
 30
0.0
 10
22.8026965318475
 20
8.390210459303676
 30
0.0
 10
22.8032368484715
 20
8.39008438600209
 30
0.0
 10
22.80336318558671
 20
8.389543635135164
 30
0.0
 10
22.80342635988993
 20
8.389273235109222
 30
0.0
  0
LINE
  5
175
330
1F
100
AcDbEntity
  8
0
  6
Continuous
 62
     7
370
    30
100
AcDbLine
 10
4.7973958604
 20
8.3892732351
 30
0.0
 11
4.7973958604
 21
8.3702736679
 31
0.0
  0
LINE
  5
176
330
1F
100
AcDbEntity
  8
0
  6
Continuous
 62
     7
370
    30
100
AcDbLine
 10
4.8313951477
 20
8.3892732351
 30
0.0
 11
4.8313951477
 21
8.3751499849
 31
0.0
  0
LINE
  5
177
330
1F
100
AcDbEntity
  8
0
  6
Continuous
 62
     7
370
    30
100
AcDbLine
 10
22.8374262338
 20
8.3892732351
 30
0.0
 11
22.8374262338
 21
8.3702736679
 31
0.0
  0
LINE
  5
178
330
1F
100
AcDbEntity
  8
0
  6
Continuous
 62
     7
370
    30
100
AcDbLine
 10
22.8034263599
 20
8.3892732351
 30
0.0
 11
22.8034263599
 21
8.3751499849
 31
0.0
  0
LINE
  5
179
330
1F
100
AcDbEntity
  8
0
  6
Continuous
 62
     7
370
    30
100
AcDbLine
 10
10.7544107778
 20
4.8030471435
 30
0.0
 11
10.7544107778
 21
4.8033181804
 31
0.0
  0
LINE
  5
17A
330
1F
100
AcDbEntity
  8
0
  6
Continuous
 62
     7
370
    30
100
AcDbLine
 10
10.7544107778
 20
4.8033181804
 30
0.0
 11
10.8803431897
 21
4.8033181804
 31
0.0
  0
LINE
  5
17B
330
1F
100
AcDbEntity
  8
0
  6
Continuous
 62
     7
370
    30
100
AcDbLine
 10
16.754410852
 20
4.8030471435
 30
0.0
 11
16.754410852
 21
4.8033181804
 31
0.0
  0
LINE
  5
17C
330
1F
100
AcDbEntity
  8
0
  6
Continuous
 62
     7
370
    30
100
AcDbLine
 10
16.754410852
 20
4.8033181804
 30
0.0
 11
16.8803431172
 21
4.8033181804
 31
0.0
  0
LINE
  5
17D
330
1F
100
AcDbEntity
  8
0
  6
Continuous
 62
     7
370
    30
100
AcDbLine
 10
4.8994265751
 20
2.3262430091
 30
0.0
 11
22.7124263178
 21
2.3262430091
 31
0.0
  0
LINE
  5
17E
330
1F
100
AcDbEntity
  8
0
  6
Continuous
 62
     7
370
    30
100
AcDbLine
 10
22.7124263178
 20
2.3262430091
 30
0.0
 11
22.7124263178
 21
1.9252433748
 31
0.0
  0
LINE
  5
17F
330
1F
100
AcDbEntity
  8
0
  6
Continuous
 62
     7
370
    30
100
AcDbLine
 10
22.7124263178
 20
1.9252433748
 30
0.0
 11
4.8994265751
 21
1.9252433748
 31
0.0
  0
LINE
  5
180
330
1F
100
AcDbEntity
  8
0
  6
Continuous
 62
     7
370
    30
100
AcDbLine
 10
4.8994265751
 20
2.3262430091
 30
0.0
 11
4.8994265751
 21
1.9252433748
 31
0.0
  0
LINE
  5
181
330
1F
100
AcDbEntity
  8
0
  6
Continuous
 62
     7
370
    30
100
AcDbLine
 10
22.7124263178
 20
1.8882427356
 30
0.0
 11
22.7124263178
 21
1.9252433748
 31
0.0
  0
LINE
  5
182
330
1F
100
AcDbEntity
  8
0
  6
Continuous
 62
     7
370
    30
100
AcDbLine
 10
22.7124263178
 20
1.8882427356
 30
0.0
 11
4.8994265751
 21
1.8882427356
 31
0.0
  0
LINE
  5
183
330
1F
100
AcDbEntity
  8
0
  6
Continuous
 62
     7
370
    30
100
AcDbLine
 10
4.8994265751
 20
1.9252433748
 30
0.0
 11
4.8994265751
 21
1.8882427356
 31
0.0
  0
LINE
  5
184
330
1F
100
AcDbEntity
  8
0
  6
Continuous
 62
     7
370
    30
100
AcDbLine
 10
22.7124263178
 20
33.8033045567
 30
0.0
 11
22.7124263178
 21
33.4023037491
 31
0.0
  0
LINE
  5
185
330
1F
100
AcDbEntity
  8
0
  6
Continuous
 62
     7
370
    30
100
AcDbLine
 10
4.8994265751
 20
33.4023037491
 30
0.0
 11
22.7124263178
 21
33.4023037491
 31
0.0
  0
LINE
  5
186
330
1F
100
AcDbEntity
  8
0
  6
Continuous
 62
     7
370
    30
100
AcDbLine
 10
4.8994265751
 20
33.4023037491
 30
0.0
 11
4.8994265751
 21
33.8033045567
 31
0.0
  0
LINE
  5
187
330
1F
100
AcDbEntity
  8
0
  6
Continuous
 62
     7
370
    30
100
AcDbLine
 10
4.8994265751
 20
33.8033045567
 30
0.0
 11
22.7124263178
 21
33.8033045567
 31
0.0
  0
LINE
  5
188
330
1F
100
AcDbEntity
  8
0
  6
Continuous
 62
     7
370
    30
100
AcDbLine
 10
4.8994265751
 20
33.8403040226
 30
0.0
 11
4.8994265751
 21
33.8033045567
 31
0.0
  0
LINE
  5
189
330
1F
100
AcDbEntity
  8
0
  6
Continuous
 62
     7
370
    30
100
AcDbLine
 10
4.8994265751
 20
33.8403040226
 30
0.0
 11
22.7124263178
 21
33.8403040226
 31
0.0
  0
LINE
  5
18A
330
1F
100
AcDbEntity
  8
0
  6
Continuous
 62
     7
370
    30
100
AcDbLine
 10
22.7124263178
 20
33.8033045567
 30
0.0
 11
22.7124263178
 21
33.8403040226
 31
0.0
  0
LINE
  5
18B
330
1F
100
AcDbEntity
  8
0
  6
Continuous
 62
     7
370
    30
100
AcDbLine
 10
4.8994265751
 20
33.7452733338
 30
0.0
 11
4.8904260391
 21
33.7452733338
 31
0.0
  0
LINE
  5
18C
330
1F
100
AcDbEntity
  8
0
  6
Continuous
 62
     7
370
    30
100
AcDbLine
 10
4.8904260391
 20
33.7452733338
 30
0.0
 11
4.8904260391
 21
33.6487889017
 31
0.0
  0
SPLINE
  5
18D
330
1F
100
AcDbEntity
  8
0
  6
Continuous
 62
     7
370
    30
100
AcDbSpline
210
0.0
220
0.0
230
1.0
 70
     8
 71
     3
 72
     9
 73
     5
 74
     0
 42
0.00000001
 43
0.00000001
 40
0.0
 40
0.0
 40
0.0
 40
0.0
 40
0.5449159452212222
 40
1.0
 40
1.0
 40
1.0
 40
1.0
 10
4.890426039064873
 20
33.74427366531396
 30
0.0
 10
4.890867228893082
 20
33.7489233105468
 30
0.0
 10
4.891676876384736
 20
33.75745608569058
 30
0.0
 10
4.897002822112561
 20
33.76411810313456
 30
0.0
 10
4.899426575089913
 20
33.76714988104596
 30
0.0
  0
LINE
  5
18E
330
1F
100
AcDbEntity
  8
0
  6
Continuous
 62
     7
370
    30
100
AcDbLine
 10
4.8994265751
 20
1.9832734244
 30
0.0
 11
4.8904260391
 21
1.9832734244
 31
0.0
  0
LINE
  5
18F
330
1F
100
AcDbEntity
  8
0
  6
Continuous
 62
     7
370
    30
100
AcDbLine
 10
4.8904260391
 20
1.9832734244
 30
0.0
 11
4.8904260391
 21
2.0797578565
 31
0.0
  0
SPLINE
  5
190
330
1F
100
AcDbEntity
  8
0
  6
Continuous
 62
     7
370
    30
100
AcDbSpline
210
0.0
220
0.0
230
1.0
 70
     8
 71
     3
 72
     9
 73
     5
 74
     0
 42
0.00000001
 43
0.00000001
 40
0.0
 40
0.0
 40
0.0
 40
0.0
 40
0.4550840547787777
 40
1.0
 40
1.0
 40
1.0
 40
1.0
 10
4.899426575089913
 20
1.961396877152088
 30
0.0
 10
4.897002822112559
 20
1.9644286550635
 30
0.0
 10
4.89167687638473
 20
1.971090672507472
 30
0.0
 10
4.890867228893081
 20
1.979623447651258
 30
0.0
 10
4.890426039064873
 20
1.984273092884091
 30
0.0
  0
LINE
  5
191
330
1F
100
AcDbEntity
  8
0
  6
Continuous
 62
     8
370
    30
100
AcDbLine
 10
22.8364318453
 20
8.3942733373
 30
0.0
 11
38.4659101722
 21
8.3942733373
 31
0.0
  0
LINE
  5
192
330
1F
100
AcDbEntity
  8
0
  6
Continuous
 62
     8
370
    30
100
AcDbLine
 10
38.4659101722
 20
27.3792731677
 30
0.0
 11
22.8374262338
 21
27.3792731677
 31
0.0
  0
LINE
  5
193
330
1F
100
AcDbEntity
  8
0
  6
Continuous
 62
     8
370
    30
100
AcDbLine
 10
4.8559104911
 20
27.3042733941
 30
0.0
 11
4.8559104911
 21
8.4242733641
 31
0.0
  0
LINE
  5
194
330
1F
100
AcDbEntity
  8
FORMAT
100
AcDbLine
 10
45.5412618883
 20
18.7819032776
 30
0.0
 11
45.5412618883
 21
16.6674788433
 31
0.0
  0
LINE
  5
195
330
1F
100
AcDbEntity
  8
FORMAT
100
AcDbLine
 10
45.5412618883
 20
16.6674788433
 30
0.0
 11
48.4388064833
 21
16.6674788433
 31
0.0
  0
LINE
  5
196
330
1F
100
AcDbEntity
  8
FORMAT
100
AcDbLine
 10
48.4388064833
 20
16.6674788433
 30
0.0
 11
48.4388064833
 21
14.9054584815
 31
0.0
  0
LINE
  5
197
330
1F
100
AcDbEntity
  8
FORMAT
100
AcDbLine
 10
48.4388064833
 20
14.9054584815
 30
0.0
 11
51.2580390623
 21
17.7246910604
 31
0.0
  0
LINE
  5
198
330
1F
100
AcDbEntity
  8
FORMAT
100
AcDbLine
 10
51.2580390623
 20
17.7246910604
 30
0.0
 11
48.4388064833
 21
20.5439236394
 31
0.0
  0
LINE
  5
199
330
1F
100
AcDbEntity
  8
FORMAT
100
AcDbLine
 10
48.4388064833
 20
20.5439236394
 30
0.0
 11
48.4388064833
 21
18.7819032776
 31
0.0
  0
LINE
  5
19A
330
1F
100
AcDbEntity
  8
FORMAT
100
AcDbLine
 10
48.4388064833
 20
18.7819032776
 30
0.0
 11
45.5412618883
 21
18.7819032776
 31
0.0
  0
ENDSEC
  0
SECTION
  2
OBJECTS
  0
DICTIONARY
  5
C
330
0
100
AcDbDictionary
281
     1
  3
ACAD_GROUP
350
D
  3
ACAD_LAYOUT
350
1A
  3
ACAD_MLINESTYLE
350
17
  3
ACAD_PLOTSETTINGS
350
19
  3
ACAD_PLOTSTYLENAME
350
E
  3
ACAD_SCALELIST
350
4C
  3
AcDbVariableDictionary
350
19B
  0
DICTIONARY
  5
D
102
{ACAD_REACTORS
330
C
102
}
330
C
100
AcDbDictionary
281
     1
  0
DICTIONARY
  5
1A
102
{ACAD_REACTORS
330
C
102
}
330
C
100
AcDbDictionary
281
     1
  3
Layout1
350
1E
  3
Layout2
350
26
  3
Model
350
22
  0
DICTIONARY
  5
17
102
{ACAD_REACTORS
330
C
102
}
330
C
100
AcDbDictionary
281
     1
  3
Standard
350
18
  0
DICTIONARY
  5
19
102
{ACAD_REACTORS
330
C
102
}
330
C
100
AcDbDictionary
281
     1
  0
ACDBDICTIONARYWDFLT
  5
E
102
{ACAD_REACTORS
330
C
102
}
330
C
100
AcDbDictionary
281
     1
  3
Normal
350
F
100
AcDbDictionaryWithDefault
340
F
  0
DICTIONARY
  5
4C
102
{ACAD_REACTORS
330
C
102
}
330
C
100
AcDbDictionary
281
     1
  3
A0
350
4D
  3
A1
350
4E
  3
A2
350
4F
  3
A3
350
50
  3
A4
350
51
  3
A5
350
52
  3
A6
350
53
  3
A7
350
54
  3
A8
350
55
  3
A9
350
56
  3
B0
350
57
  3
B1
350
58
  3
B2
350
59
  3
B3
350
5A
  3
B4
350
5B
  3
B5
350
5C
  3
B6
350
5D
  3
B7
350
5E
  3
B8
350
5F
  3
B9
350
60
  3
C0
350
61
  3
C1
350
62
  3
C2
350
63
  3
C3
350
64
  3
C4
350
65
  3
C5
350
66
  3
C6
350
67
  3
C7
350
68
  3
C8
350
69
  3
C9
350
6A
  3
D0
350
6B
  3
D1
350
6C
  3
D2
350
6D
  0
DICTIONARY
  5
19B
102
{ACAD_REACTORS
330
C
102
}
330
C
100
AcDbDictionary
281
     1
  3
CANNOSCALE
350
19C
  0
LAYOUT
  5
1E
102
{ACAD_REACTORS
330
1A
102
}
330
1A
100
AcDbPlotSettings
  1

  2
none_device
  4

  6

 40
0.0
 41
0.0
 42
0.0
 43
0.0
 44
0.0
 45
0.0
 46
0.0
 47
0.0
 48
0.0
 49
0.0
140
0.0
141
0.0
142
1.0
143
1.0
 70
   688
 72
     0
 73
     0
 74
     5
  7

 75
    16
147
1.0
148
0.0
149
0.0
100
AcDbLayout
  1
Layout1
 70
     1
 71
     1
 10
0.0
 20
0.0
 11
12.0
 21
9.0
 12
0.0
 22
0.0
 32
0.0
 14
1.0000000000E+20
 24
1.0000000000E+20
 34
1.0000000000E+20
 15
-1.0000000000E+20
 25
-1.0000000000E+20
 35
-1.0000000000E+20
146
0.0
 13
0.0
 23
0.0
 33
0.0
 16
1.0
 26
0.0
 36
0.0
 17
0.0
 27
1.0
 37
0.0
 76
     0
330
1B
  0
LAYOUT
  5
26
102
{ACAD_REACTORS
330
1A
102
}
330
1A
100
AcDbPlotSettings
  1

  2
none_device
  4

  6

 40
0.0
 41
0.0
 42
0.0
 43
0.0
 44
0.0
 45
0.0
 46
0.0
 47
0.0
 48
0.0
 49
0.0
140
0.0
141
0.0
142
1.0
143
1.0
 70
   688
 72
     0
 73
     0
 74
     5
  7

 75
    16
147
1.0
148
0.0
149
0.0
100
AcDbLayout
  1
Layout2
 70
     1
 71
     2
 10
0.0
 20
0.0
 11
0.0
 21
0.0
 12
0.0
 22
0.0
 32
0.0
 14
0.0
 24
0.0
 34
0.0
 15
0.0
 25
0.0
 35
0.0
146
0.0
 13
0.0
 23
0.0
 33
0.0
 16
1.0
 26
0.0
 36
0.0
 17
0.0
 27
1.0
 37
0.0
 76
     0
330
23
  0
LAYOUT
  5
22
102
{ACAD_REACTORS
330
1A
102
}
330
1A
100
AcDbPlotSettings
  1

  2
none_device
  4

  6

 40
0.0
 41
0.0
 42
0.0
 43
0.0
 44
0.0
 45
0.0
 46
0.0
 47
0.0
 48
0.0
 49
0.0
140
0.0
141
0.0
142
1.0
143
1.0
 70
  1712
 72
     0
 73
     0
 74
     0
  7

 75
     0
147
1.0
148
0.0
149
0.0
100
AcDbLayout
  1
Model
 70
     1
 71
     0
 10
0.0
 20
0.0
 11
55.0
 21
35.0
 12
0.0
 22
0.0
 32
0.0
 14
0.0
 24
0.0
 34
0.0
 15
55.0
 25
35.0
 35
0.0
146
0.0
 13
0.0
 23
0.0
 33
0.0
 16
1.0
 26
0.0
 36
0.0
 17
0.0
 27
1.0
 37
0.0
 76
     0
330
1F
331
29
  0
MLINESTYLE
  5
18
102
{ACAD_REACTORS
330
17
102
}
330
17
100
AcDbMlineStyle
  2
Standard
 70
     0
  3

 62
   256
 51
90.0
 52
90.0
 71
     2
 49
0.5
 62
   256
  6
BYLAYER
 49
-0.5
 62
   256
  6
BYLAYER
  0
ACDBPLACEHOLDER
  5
F
102
{ACAD_REACTORS
330
E
102
}
330
E
  0
SCALE
  5
4D
102
{ACAD_REACTORS
330
4C
102
}
330
4C
100
AcDbScale
 70
     0
300
1:1
140
1.0
141
1.0
290
     1
  0
SCALE
  5
4E
102
{ACAD_REACTORS
330
4C
102
}
330
4C
100
AcDbScale
 70
     0
300
1:2
140
1.0
141
2.0
290
     0
  0
SCALE
  5
4F
102
{ACAD_REACTORS
330
4C
102
}
330
4C
100
AcDbScale
 70
     0
300
1:4
140
1.0
141
4.0
290
     0
  0
SCALE
  5
50
102
{ACAD_REACTORS
330
4C
102
}
330
4C
100
AcDbScale
 70
     0
300
1:5
140
1.0
141
5.0
290
     0
  0
SCALE
  5
51
102
{ACAD_REACTORS
330
4C
102
}
330
4C
100
AcDbScale
 70
     0
300
1:8
140
1.0
141
8.0
290
     0
  0
SCALE
  5
52
102
{ACAD_REACTORS
330
4C
102
}
330
4C
100
AcDbScale
 70
     0
300
1:10
140
1.0
141
10.0
290
     0
  0
SCALE
  5
53
102
{ACAD_REACTORS
330
4C
102
}
330
4C
100
AcDbScale
 70
     0
300
1:16
140
1.0
141
16.0
290
     0
  0
SCALE
  5
54
102
{ACAD_REACTORS
330
4C
102
}
330
4C
100
AcDbScale
 70
     0
300
1:20
140
1.0
141
20.0
290
     0
  0
SCALE
  5
55
102
{ACAD_REACTORS
330
4C
102
}
330
4C
100
AcDbScale
 70
     0
300
1:30
140
1.0
141
30.0
290
     0
  0
SCALE
  5
56
102
{ACAD_REACTORS
330
4C
102
}
330
4C
100
AcDbScale
 70
     0
300
1:40
140
1.0
141
40.0
290
     0
  0
SCALE
  5
57
102
{ACAD_REACTORS
330
4C
102
}
330
4C
100
AcDbScale
 70
     0
300
1:50
140
1.0
141
50.0
290
     0
  0
SCALE
  5
58
102
{ACAD_REACTORS
330
4C
102
}
330
4C
100
AcDbScale
 70
     0
300
1:100
140
1.0
141
100.0
290
     0
  0
SCALE
  5
59
102
{ACAD_REACTORS
330
4C
102
}
330
4C
100
AcDbScale
 70
     0
300
2:1
140
2.0
141
1.0
290
     0
  0
SCALE
  5
5A
102
{ACAD_REACTORS
330
4C
102
}
330
4C
100
AcDbScale
 70
     0
300
4:1
140
4.0
141
1.0
290
     0
  0
SCALE
  5
5B
102
{ACAD_REACTORS
330
4C
102
}
330
4C
100
AcDbScale
 70
     0
300
8:1
140
8.0
141
1.0
290
     0
  0
SCALE
  5
5C
102
{ACAD_REACTORS
330
4C
102
}
330
4C
100
AcDbScale
 70
     0
300
10:1
140
10.0
141
1.0
290
     0
  0
SCALE
  5
5D
102
{ACAD_REACTORS
330
4C
102
}
330
4C
100
AcDbScale
 70
     0
300
100:1
140
100.0
141
1.0
290
     0
  0
SCALE
  5
5E
102
{ACAD_REACTORS
330
4C
102
}
330
4C
100
AcDbScale
 70
     0
300
1/128" = 1'-0"
140
0.0078125
141
12.0
290
     0
  0
SCALE
  5
5F
102
{ACAD_REACTORS
330
4C
102
}
330
4C
100
AcDbScale
 70
     0
300
1/64" = 1'-0"
140
0.015625
141
12.0
290
     0
  0
SCALE
  5
60
102
{ACAD_REACTORS
330
4C
102
}
330
4C
100
AcDbScale
 70
     0
300
1/32" = 1'-0"
140
0.03125
141
12.0
290
     0
  0
SCALE
  5
61
102
{ACAD_REACTORS
330
4C
102
}
330
4C
100
AcDbScale
 70
     0
300
1/16" = 1'-0"
140
0.0625
141
12.0
290
     0
  0
SCALE
  5
62
102
{ACAD_REACTORS
330
4C
102
}
330
4C
100
AcDbScale
 70
     0
300
3/32" = 1'-0"
140
0.09375
141
12.0
290
     0
  0
SCALE
  5
63
102
{ACAD_REACTORS
330
4C
102
}
330
4C
100
AcDbScale
 70
     0
300
1/8" = 1'-0"
140
0.125
141
12.0
290
     0
  0
SCALE
  5
64
102
{ACAD_REACTORS
330
4C
102
}
330
4C
100
AcDbScale
 70
     0
300
3/16" = 1'-0"
140
0.1875
141
12.0
290
     0
  0
SCALE
  5
65
102
{ACAD_REACTORS
330
4C
102
}
330
4C
100
AcDbScale
 70
     0
300
1/4" = 1'-0"
140
0.25
141
12.0
290
     0
  0
SCALE
  5
66
102
{ACAD_REACTORS
330
4C
102
}
330
4C
100
AcDbScale
 70
     0
300
3/8" = 1'-0"
140
0.375
141
12.0
290
     0
  0
SCALE
  5
67
102
{ACAD_REACTORS
330
4C
102
}
330
4C
100
AcDbScale
 70
     0
300
1/2" = 1'-0"
140
0.5
141
12.0
290
     0
  0
SCALE
  5
68
102
{ACAD_REACTORS
330
4C
102
}
330
4C
100
AcDbScale
 70
     0
300
3/4" = 1'-0"
140
0.75
141
12.0
290
     0
  0
SCALE
  5
69
102
{ACAD_REACTORS
330
4C
102
}
330
4C
100
AcDbScale
 70
     0
300
1" = 1'-0"
140
1.0
141
12.0
290
     0
  0
SCALE
  5
6A
102
{ACAD_REACTORS
330
4C
102
}
330
4C
100
AcDbScale
 70
     0
300
1-1/2" = 1'-0"
140
1.5
141
12.0
290
     0
  0
SCALE
  5
6B
102
{ACAD_REACTORS
330
4C
102
}
330
4C
100
AcDbScale
 70
     0
300
3" = 1'-0"
140
3.0
141
12.0
290
     0
  0
SCALE
  5
6C
102
{ACAD_REACTORS
330
4C
102
}
330
4C
100
AcDbScale
 70
     0
300
6" = 1'-0"
140
6.0
141
12.0
290
     0
  0
SCALE
  5
6D
102
{ACAD_REACTORS
330
4C
102
}
330
4C
100
AcDbScale
 70
     0
300
1'-0" = 1'-0"
140
12.0
141
12.0
290
     0
  0
DICTIONARYVAR
  5
19C
102
{ACAD_REACTORS
330
19B
102
}
330
19B
100
DictionaryVariables
280
     0
  1
1:1
  0
ENDSEC
  0
EOF
